PrimaNota.ru - самый крупный в мире бесплатный архив песенных текстов, аккордов, табулатур и нот


Crashdog - Georges Poem - таба, видео

Регистрация Запомнить меня
Войти через:  Facebook Google Twitter Vk Yandex Mail.ru

Crashdog - Georges Poem - таба, видео

Печатать
Просмотров: 72
		   Song: George's Poem
Group: CRASHDOG
Album: Cashists, Fascists, and Other Fungus
Tabbed by: Mark McGhee

Riff A:

----------------------
----------------------
----7--------------9--
-9--7--9--7--9--7--9--
-9--5--9--7--9--7--7--
-7-----7--5--7--5-----

Riff B:

---------------------------------------------------
---------------------------------------------------
----7--9--------7--9--11-----7--9--11-----7--9-----
-9--7--9--7--9--7--9--11--9--7--9--11--9--7--9--7--
-9--5--7--7--9--5--7---9--9--5--7---9--9--5--7--7--
-7--------5--7------------7------------7--------5--

Riff C:

-------------------------
-------------------------
-6--4-----4--6-----------
-6--4--6--4--6--6--7--6--
-4--2--6--2--4--6--7--6--
-------4--------4--5--4--

Riff D:

----------------------------------------
----------------------------------------
-6--4--------------6--4-----------------
-6--4--6--7--6--7--6--4--6--7--6--7--6--
-4--2--6--7--6--7--4--2--6--7--6--7--6--
-------4--5--4--5--------4--5--4--5--4--

Riff E:

--------------
--------------
----7------5--
-9--7--7?--5--
-9--5--7?--3--
-7-----5?-----

I'm too sure about Riff E  It's something like that with a bit of Riff D
mixed in.

Song Order:

Riff A    5x

Riff B    1x

Riff C    4x

Riff A    3x

Riff B    1x

Riff C    4x

Riff D    2x

Riff C    2x

Riff A    3x

Riff B    1x

Riff E    3x

Part of Riff D

Riff E    3x

Part of Riff D

Riff E    1x

End on  "C" chord (x,3,5,5,x,x)

That's the best that I've got.  If you have questions, comments, or
corrections e-mail me at Chizey@AOL.com

If anybody knows the words to this song, please tell me what they are.
     
Добавлено: 01.10.2013
Вам также может быть интересно:
Другие материалы по этой песне:
  • Аккорды и текст

Страница создана 01.10.2013
http://primanota.ru/crashdog/georges-poem-chords.htm
Привет, Гость.
Предлагаем пройти революционный курс по гитаре.
Подарок от PrimaNota.Ru, забирай!