PrimaNota.ru - самый крупный в мире бесплатный архив песенных текстов, аккордов, табулатур и нот


Crashdiet - Wild Rose - аккорды и текст, видео

Регистрация Запомнить меня
Войти через:  Facebook Google Twitter Vk Yandex Mail.ru

Crashdiet - Wild Rose - аккорды и текст, видео

Печатать
Просмотров: 285
Wild Rose
Crashdiet
Wild Rose - Martin Sweet demo (Crashdiet)

D tuning/ 1 step down/ DGCFAD

My cover on Youtube: http://www.youtube.com/watch?v=sKcDDGmRw50

I play this song mostly with bar-chords because it sounds like thats the way they play (y

this is how i play the chords in the song of course you can play them 
like open chords if you want
(dont mind what it says in the info box for the chords)

  Bm        G        F#m        A         D         C         Em
E--2--|   E--3--|   E--2--|   E--5--|   E--2--|   E--0--|   E--0--|
B--3--|   B--3--|   B--2--|   B--5--|   B--3--|   B--1--|   B--0--|
G--4--|   G--4--|   G--2--|   G--6--|   G--2--|   G--0--|   G--0--|
D--4--|   D--5--|   D--4--|   D--7--|   D--0--|   D--2--|   D--2--|
A--2--|   A--5--|   A--4--|   A--7--|   A-----|   A--3--|   A--2--|
E-----|   E--3--|   E--2--|   E--5--|   E-----|   E-----|   E--0--|

Intro rythm: G, Bm, A x2

Intro Solo:

E-------------------------------------------------------------------|
B------------------------10-----------------------------------------|
G---------7---9b---7-9-9b-----/11--11b-9-11---11b-9-----------------|
D--/9---9-------------------------------------------12----12p10-----|
A---------------------------------------------------------------12--|
E-------------------------------------------------------------------|


Verse:

Bm
So hard to tell what's in your mind

When someone leaves the world behind
F#m
Rage and sorrow  changing lanes
A
Sometimes rage remains
Bm
That friday night  time stood still
                       F#m
And shivered down my spine
                 A
So unreal and so hard to heal


Chorus:

G   Bm           A
Oh  wild rose is gone
G      Bm                          A
He was one of the greatest of them all
G   Bm                  A
But the wild rose lives on
G           Bm                    A
Even though he's forever and ever gone


Verse 2:

Bm
Memories they fade away

I know these are here to stay
F#m
Now I can take easily
                A
Maybe is just destiny
Bm
Is a shame you're gone

You will always be the star
F#m                    A
Shining down on every soul


Chorus


Bridge:

Em     G
Oh so sad
D            C
You're never coming back
Em       G
But your soul will shine
D       C      Bm  D
In all our minds
A   G       Bm  D
In  our minds
A   G       Bm
In  our minds

solo: G, Bm, A, x2 

The first note is played before the actual solo starts
E-----------------------------------------------------------------|
B--------------------10---------------------------10--------------|
G-----------------9b----9br--9-7---9-7-----7-9-9b----9br--9-7-9---|
D--/9----9-9-9-9------------------------7-------------------------|
A-----------------------------------------------------------------|
E-----------------------------------------------------------------|

E---------------------------------------------------------------------|
B--/12-12-15-17b-15--15-15/14-12-10---10-12-12/14-14-14-14/15-14--12--|
G---------------------------------------------------------------------|
D---------------------------------------------------------------------|
A---------------------------------------------------------------------|
E---------------------------------------------------------------------|

Chorus

Bridge 2:

Em     G
Oh so sad
D            C
You're never coming back
Em       G
But your soul will shine
D       C      Bm  D
In all our minds
A   G       Bm  D
In  our minds
A   G       Bm  D
In  our minds
A   G       Bm  D
In  our minds
A   G       Bm
In  our minds 


/ = slide
p = pull off
h = hammer on
B = bend
br = release bend
Добавлено: 08.04.2012
Другие материалы по этой песне:
  • Аккорды и текст

Страница создана 08.04.2012
http://primanota.ru/crashdiet/wild-rose-chords.htm
Привет, Гость.
Предлагаем пройти революционный курс по гитаре.
Подарок от PrimaNota.Ru, забирай!