PrimaNota.ru - самый крупный в мире бесплатный архив песенных текстов, аккордов, табулатур и нот


Crashdiet - Ticket - таба, видео

Регистрация Запомнить меня
Войти через:  Facebook Google Twitter Vk Yandex Mail.ru

Crashdiet - Ticket - таба, видео

Печатать
Просмотров: 130
Crashdiet - Tikket (Rest in Sleaze)


Tuning
On the record: Half Step Down/ Eb
Live (2005 and onwards): One Step Down/ D Tuning/ DGCFAD


[Intro]

Guitar 1                                            *
E----------------------------------------------------------------|
B----------------------------------------------------------------|
G--5/7-7-----7-----7-----7--5-5-----5-----5-----5---3-------3----|
D--5/7-7-----7-----7-----7--5-5-----5-----5-----5---3-------3----|
A--3/5-5-5-5---5-5---5-5--------5-5---5-5---5-5-----1-------1----|
E----------------------------------------------------------------|
                                                    *
E----------------------------------------------------------------------|
B----------------------------------------------------------------------|
G--5/7-7-----7-----7-----7--5-5-----5-----5-----5---3-------3------5---|
D--5/7-7-----7-----7-----7--5-5-----5-----5-----5---3-------3------5---|
A--3/5-5-5-5---5-5---5-5--------5-5---5-5---5-5-----1-------1------3---|
E----------------------------------------------------------------------|

Guitar 2
This is a acoustic guitar playing at the same time where this marker is "*"
E-----------------1------------------------------1-----------------|
B-----------1-------1--------1-------------1-------1--------1------|
G-------3-----3-------3----3---3-------3-----3-------3----3---3----|
D-----3---3-----3--------3-----------3---3-----3--------3----------|
A---1------------------------------1-------------------------------|
E------------------------------------------------------------------|


[Verse]

 I cant stand be in the spotlight dont like it i never had 
E--------------------------------------------------------|
B--------------------------------------------------------|
G--7-----------5-----------------7---------------5-------|
D--7-----------5-----------------7---------------5-------|
A--5-----------------------------5-----------------------|
E--------------------------------------------------------|

the mirror reflecting the streetlight in the gutter thats where i am
E-----------------------------------------------------------------|
B-----------------------------------------------------------------|
G--7-------------5--------------------3-----------------5---------|
D--7-------------5--------------------3-----------------5---------|
A--5----------------------------------1-----------------3---------|
E-----------------------------------------------------------------|

trippin up...
E--------------------------|
B--------------------------|
G--7-----5-----7-----5-----|
D--7-----5-----7-----5-----|
A--5-----------5-----------|
E--------------------------|

to be found..      wander..
E-----------------------------------|
B-----------------------------------|
G--7-------5----------------7---5---|
D--7-------5--------5---7---7---5---|
A--5----------------5---7---5---3---|
E-------------------3---5-----------|


[Pre-Chorus]

Oh oh..
E------------------------------------------------|
B------------------------------------------------|
G--3--------5--3-------5--3-------5--3-------5---|
D--3--------5--3-------5--3-------5--3-------5---|
A--1--------3--1-------3--1-------3--1-------3---|
E------------------------------------------------|


[Chorus]

 Is this the chart of my illusion or is it just the way to be
E--------------------------------------------------------------|
B--------------------------------------------------------------|
G---7------------------3------------------------5--------7-----|
D---7------------------3--------5--------3------5--------7-----|
A---5------------------1--------5--------3------3--------5-----|
E-------------------------------3--------1---------------------|

Is this the heart of my confusion or is it just the tikket to me
E--------------------------------------------------------------|
B--------------------------------------------------------------|
G---7------------------3---------------------------5-------7---|
D---7------------------3---------5---------3-------5-------7---|
A---5------------------1---------5---------3-------3-------5---|
E--------------------------------3---------1-------------------|


[Bridge]
    I rather dont know anymore  i might be getting low
E-----------------------------------------------------|
B-----------------------------------------------------|
G------------------------------------------5------7---|
D---5-------------------------3------------5------7---|
A---5-------------------------3------------3------5---|
E---3-------------------------1-----------------------|


[Solo Rythm]

E---------------------------------------------------|
B---------------------------------------------------|
G---------------------------------------------------|
D------5-----5-----5-----5-----5-----5-----5-----5--|
A------5-----5-----5-----5-----5-----5-----5-----5--|
E--3-3-3-3-3-3-3-3-3-3-3-3-3-3-3-3-3-3-3-3-3-3-3-3--| x2

E---------------------------------------------------|
B---------------------------------------------------|
G---------------------------------------------------|
D------7-----7-----7-----7-----7-----7-----7-----7--|
A------7-----7-----7-----7-----7-----7-----7-----7--|
E--5-5-5-5-5-5-5-5-5-5-5-5-5-5-5-5-5-5-5-5-5-5-5-5--| x2


/ - Slide
Добавлено: 31.05.2012
Другие материалы по этой песне:
  • Аккорды и текст

Страница создана 31.05.2012
http://primanota.ru/crashdiet/ticket-chords.htm
Привет, Гость.
Предлагаем пройти революционный курс по гитаре.
Подарок от PrimaNota.Ru, забирай!