PrimaNota.ru - самый крупный в мире бесплатный архив песенных текстов, аккордов, табулатур и нот


Crashdiet - Straight Outta Hell - таба, видео

Регистрация Запомнить меня
Войти через:  Facebook Google Twitter Vk Yandex Mail.ru

Crashdiet - Straight Outta Hell - таба, видео

Печатать
Просмотров: 95
Straight Outta Hell - Crashdïet (Rest in Sleaze)

On the album: Eb Tuning/ half step down
Live: D tuning/ 1 step down/ DGCFAD


[Intro]

Do a pick slide bofore each chord
E---------3-------------3----------------|
B---------3-------------3----------------|
G--2------0------2------0----------------|
D--2------0------2------0----------------|
A--0------x------0------x----------------|
E---------3-------------3--------3--2----|

E----------------------------------------------|
B----------------------3-----------------------|
G---4--2--4---2--4--2--2--2--4-----------------|
D---4--2--4---2--4--2-----2--4-----------------|
A-------------------------------2-2-2-2-2-2----|
E----------------------------------------------| x4


[Verse]

E------------------3--3----------------------3--3---|
B------------------3--3----------------------3--3---|
G--4--2--2------2--0--0------4--2--2------2--0--0---|
D--4--2--2------2--0--0------4--2--2------2--0--0---|
A--2--0--0------0--x--x------2--0--0------0--x--x---|
E------------------3--3----------------------3--3---|


[Chorus]

E----------------------------------------------|
B----------------------3-----------------------|
G---4--2--4---2--4--2--2--2--4-----------------|
D---4--2--4---2--4--2-----2--4-----------------|
A-------------------------------2-2-2-2-2-2----|
E----------------------------------------------|


[Bridge]

E-------------------------------------------------|
B-------------------------------------------------|
G--7--9--11-11-11--11-11-11--9--9--9---9--9--9----|
D--7--9--11-11-11--11-11-11--9--9--9---9--9--9----|
A--5--7--9--9--9---9--9--9---7--7--7---7--7--7----|
E-------------------------------------------------|

E--------------------------------------------|
B--------------------------------------------|
G---11-11-11--11-11-11--9--9--9---9--9--9----|
D---11-11-11--11-11-11--9--9--9---9--9--9----|
A---9--9--9---9--9--9---7--7--7---7--7--7----|
E--------------------------------------------|


[Solo rythm guitar]

E----------------------------------|
B----------------------------------|
G---11-------7--7--7---7--7--7-----|
D---11-------7--7--7---7--7--7-----|
A---9--------5--5--5---5--5--5-----|
E----------------------------------| x2


[Guitar solo]

E-----------------------------------------------|
B--10-9----------9-10--12-10-9------9-10--------|
G--11-9--11-9-11-9-11--13-11-9-9-11-9-11---7----|
D--------11-9-11---------------9-11--------7----|
A-----------------------------------------------|
E-----------------------------------------------|

E---------------------------------------------------------------|
B--10-9----------9-10--12-10-9------9-10-------------10/12-12---|
G--11-9--11-9-11-9-11--13-11-9-9-11-9-11---7---9--11------------|
D--------11-9-11---------------9-11--------7--------------------|
A---------------------------------------------------------------|
E---------------------------------------------------------------|


[Outro chorus]
After the solo they play the normal chorus riff 4 times before this part.
The bass (and rythm guitar?) changes and play these notes at the same time:

    A                                    G                       A            B
E-----------------------------------------------------------------------------|
B-----------------------------------------------------------------------------|
G---4--2--4--2--4--2--4--2--4--2--4--2---4--2--4--2--4--2--4--2--4--2--4--2---|
D---4--2--4--2--4--2--4--2--4--2--4--2---4--2--4--2--4--2--4--2--4--2--4--2---|
A-----------------------------------------------------------------------------|
E-----------------------------------------------------------------------------|

then back to the normal riff once before ending like this:

E--------------------------------|
B----------------------3---------|
G---4--2--4---2--4--2--2--2--4---|
D---4--2--4---2--4--2-----2--4---|
A----------------------------2---|
E--------------------------------|

x - mute
/ - slide
Добавлено: 13.11.2013
Другие материалы по этой песне:
  • Аккорды и текст

Страница создана 13.11.2013
http://primanota.ru/crashdiet/straight-outta-hell-chords.htm
Привет, Гость.
Предлагаем пройти революционный курс по гитаре.
Подарок от PrimaNota.Ru, забирай!