PrimaNota.ru - самый крупный в мире бесплатный архив песенных текстов, аккордов, табулатур и нот


Crashdiet - Riot In Everyone - текст песни, таба, бас-таба, видео

Регистрация Запомнить меня
Войти через:  Facebook Google Twitter Vk Yandex Mail.ru

Crashdiet - Riot In Everyone - текст песни, таба, бас-таба, видео

Печатать
Просмотров: 319
Band-Crashdiet
Song-Riot In Everyone (Solo)
Album Rest In Sleaze

Tuning is a Half Step down-Eb Bb Gb Db Ab Eb
                          (D# A# F# C# G# D#)

This is only the solo for the song it's kind of short but It's so fun to play when you 
it down.
I promise I'll put up the full song as soon as I can.
I did my best to put on the times so you know where you should be at times in the solo.

Legend-  b= bend
        ()= Let Note Ring
         ~= Vibrato
         H= Hammer On
         P= Pull Off
         /\= Slide Up/Slide Down
This is the short bridge before the solo, listen to the song for timing.

(2:17)
|-----------------------------|
|-----------------------------|
|-9-------7-------5---4-------|
|-9---9---7---7---5---4---2---|
|-7---9---5---7---3---2---2---|
|-----7-------5-----------0---|

Guitar Solo (Martin Sweet)

(2:21)

|--19-17-19----19-17--|--17---17-----19b-----17h19p17----17-------------|
|-----------20--------|--20b--20b---------------------20----20--17--20--|
|---------------------|-------------------------------------------------|
|---------------------|-------------------------------------------------|
|---------------------|-------------------------------------------------|
|---------------------|-------------------------------------------------|

|--------------------------------|
|--17--------------20------------|
|------20-19-17--------17--19b~~-|
|---------------19---------------|
|--------------------------------|
|--------------------------------|

|-------17-------15-------17-------15----------15-----|
|--15------15-13----13-15----15-13----13-13-------15b-|
|-------------------------------------------14--------|
|-----------------------------------------------------|
|-----------------------------------------------------|
|-----------------------------------------------------|

|--------------15--------------|
|--15-13----13----13-15b~~~-\--|
|--------14--------------------|
|------------------------------|
|------------------------------|
|------------------------------|

(2:33)

|---------------------------7b~~~----(7b)~~~----------22b~~---|
|-------------------------------------------------------------|
|----------------7-----5--------------------------------------|
|--9-----(9)--------------------------------------------------|
|-------------------------------------------------------------|
|-------------------------------------------------------------|

|--17b----15--17---|
|------------------|
|------------------|
|------------------|
|------------------|
|------------------|

(2:41)

|----------------------------------------------------------------------|
|--15b--15b-15p12h15-12-----12--------------12-------------------------|
|------------------------14----14p12--14b------14p12-------------------|
|----------------------------------------------------14p12-------------|
|----------------------------------------------------------14p10-12p10-|
|----------------------------------------------------------------------|

(2:44)

|--(12)--|
|--(12)--|
|--------|
|--------|
|--------|
|--------|

End Of Solo

I'll Post the full song if you want I already have it but had no time for the whole song.

ENJOY
Добавлено: 27.05.2012
Другие материалы по этой песне:

Страница создана 23.04.2012
http://primanota.ru/crashdiet/riot-in-every-one-chords.htm
Привет, Гость.
Предлагаем пройти революционный курс по гитаре.
Подарок от PrimaNota.Ru, забирай!