PrimaNota.ru - самый крупный в мире бесплатный архив песенных текстов, аккордов, табулатур и нот


Crashdiet - One Of A Kind - таба, видео

Регистрация Запомнить меня
Войти через:  Facebook Google Twitter Vk Yandex Mail.ru

Crashdiet - One Of A Kind - таба, видео

Печатать
Просмотров: 119
Уроки эстрадного вокала в Санкт-Петербурге
One of a Kind - Crashdiet (from the generation wild single)

Tuning: Eb/ Half step down


Intro:
E-----------------------------|
B-----------------------------|
G----9---7---7---5---7----5---|
D----9---5---4---5---7----5---|
A----7-----------3---5----3---|
E--0---0---0---0---0----0-----|

E--------------------------------------|
B--------------------------------------|
G----9---7---7---5--7--7-7-7-7-7-7-7---|
D----9---5---4---5--7--7-7-7-7-7-7-7---|
A----7-----------3--5--5-5-5-5-5-5-5---|
E--0---0---0---0-----------------------|

E-----------------------------|
B-----------------------------|
G----9---7---7---5---7----5---|
D----9---5---4---5---7----5---|
A----7-----------3---5----3---|
E--0---0---0---0---0----0-----| x2

E---------------------------------------------------|
B--------------10----------8------------------------|
G--9-----------9-----------7-----------7------------|
D--9-----------7-----------5-----------7------------|
A--7-----------------------------------5------------|
E----0-0-0-0-0---0-0-0-0-0---0-0-0-0-0---0-0-0-0-0--| x2

Verse:
E---------------------------------------------------|
B--------------10----------8------------------------|
G--9-----------9-----------7-----------7------------|
D--9-----------7-----------5-----------7------------|
A--7-----------------------------------5------------|
E----0-0-0-0-0---0-0-0-0-0---0-0-0-0-0---0-0-0-0-0--|

E--------------------------------------------------|
B--------------10----------8--8--8--8--------------|
G--9-----------9-----------7--7--7--7--7--7--7--7--|
D--9-----------7-----------5--5--5--5--7--7--7--7--|
A--7-----------------------------------5--5--5--5--|
E----0-0-0-0-0---0-0-0-0-0-------------------------|

Pre-chorus:
these are the chords

Those tears dont cry  cant explain the reasons why we act tonight 
E---------------------------------------------------------------|
B---------------------------------------------------------------|
G------4-------5------7-----------------7-------------4-----5---|
D------4-------5------7-----------------7-------------4-----5---|
A------2-------3------5-----------------5-------------2-----3---|
E---------------------------------------------------------------|

So come on and see the scars, No matter who you are
E-----------------------------------------------|
B-----------------------------------------------|
G------7---------------7-----------5------------|
D------7---------------7-----------5------------|
A------5---------------4-----------3------------|
E-----------------------------------------------|

and this is the kind of picking thing on the chords
but im not 100% its right
E--------------------------------------------------------------|
B--------------------------------------------------------------|
G----0-----0--------0-----0--------0-----0--------0-----0------|
D------0-----0--------0-----0--------0-----0--------0-----0----|
A--2-----2-----2--3-----3-----3--5-----5-----5--5-----5-----5--|
E--------------------------------------------------------------|

E-----------------------------------------------------------------|
B-----------------------------------------------------------------|
G----0-----0--------0-----0--------0-----0--------0-----0------5--|
D------0-----0--------0-----0--------0-----0--------0-----0----5--|
A--2-----2-----2--3-----3-----3--5-----5-----5--4-----4-----4--3--|
E-----------------------------------------------------------------|

Chorus:
E-----------------------------|
B-----------------------------|
G----9---7---7---5---7----5---|
D----9---5---4---5---7----5---|
A----7-----------3---5----3---|
E--0---0---0---0---0----0-----|

E---------------------------------------|
B---------------------------------------|
G----9---7---7---5--7--5---7-7-7-7-7-7--|
D----9---5---4---5--7--5---7-7-7-7-7-7--|
A----7-----------3--5--3---5-5-5-5-5-5--|
E--0---0---0---0------------------------|

Bridge:

E--------------------------------------------------------------|
B-------------------------------------------------3-----3------|
G----0-----0--------0-----0--------0-----0----------2-----2----|
D------0-----0--------0-----0--------0-----0----0-----0-----0--|
A--3-----3-----3--2-----2-----2--------2-----2-----------------|
E--------------------------------3-----------------------------|

Solo rythm guitar:
i think its the same as the Pre-Chorus but you only play the chords
Добавлено: 21.03.2012
Другие материалы по этой песне:
  • Аккорды и текст

Страница создана 21.03.2012
http://primanota.ru/crashdiet/one-of-a-kind-chords.htm
Привет, Гость.
Предлагаем пройти революционный курс по гитаре.
Подарок от PrimaNota.Ru, забирай!