PrimaNota.ru - самый крупный в мире бесплатный архив песенных текстов, аккордов, табулатур и нот


Crashdiet - Needle In Your Eye - таба, видео

Регистрация Запомнить меня
Войти через:  Facebook Google Twitter Vk Yandex Mail.ru

Crashdiet - Needle In Your Eye - таба, видео

Печатать
Просмотров: 143
Crashdiet - Needle in Your Eye (Rest in Sleaze)

Tuning
Album: Eb, half step down
Live: D, whole step down

Intro

E-----------------------------------------------|
B-----------------------------------------------|
G--7-7-7-7/9--7-7-7-7/9--7-7-7-7/9--7-7---------|
D--7-7-7-7/9--7-7-7-7/9--7-7-7-7/9--7-7-7-7-----|
A--5-5-5-5/7--5-5-5-5/7--5-5-5-5/7--5-5-7-7-----|
E---------------------------------------5-5-----|

E------------------------------------------------|
B------------------------------------------------|
G--7-7-7-7/9--7-7-7-7/9--7-7-7-7/9---------------|
D--7-7-7-7/9--7-7-7-7/9--7-7-7-7/9---------------|
A--5-5-5-5/7--5-5-5-5/7--5-5-5-5/7--3h5p3-7p5-7--|
E------------------------------------------------|

E-----------------------------------------------|
B-----------------------------------------------|
G--7-7-7-7/9--7-7-7-7/9--7-7-7-7/9--7-7---------|
D--7-7-7-7/9--7-7-7-7/9--7-7-7-7/9--7-7-7-7-----|
A--5-5-5-5/7--5-5-5-5/7--5-5-5-5/7--5-5-7-7-----|
E---------------------------------------5-5-----|

E--------------------------------------------|
B--------------------------------------------|
G--7-7-7-7/9--7-7-7-7/9--5--------5----------|
D--7-7-7-7/9--7-7-7-7/9--5--------5--5--2----|
A--5-5-5-5/7--5-5-5-5/7--3--------3--5--2----|
E------------------------------------3--0----|

Verse

E
Yo say you don't love me

well I don't really care about you
C
coz I'm a gun turret bad boy baby

runin' high on the fumes


            it's like a chip of destruction
E-------------------------------------------------|
B-------------------------------------------------|
G--5--------------7-------------9----------12-11--|
D--5-5-2----------7-------------9----------12-11--|
A--3-5-2------------------------------------------|
E----3-0---0--0-0--------0--0-0-------------------|

   makes me cry ouf for more
E-------------------------------------------|
B-------------------------------------------|
G-----------7-------------9----------12-11--|
D-----------7-------------9----------12-11--|
A-------------------------------------------|
E----0--0-0--------0--0-0-------------------|

all the friends that I know of and the boys in the crew
E---------------------------------------------------|
B---------------------------------------------------|
G---x-x-7--x-x-7--x-x-7--x-x-7--x-x-7--x-x-7--------|
D---x-x-7--x-x-7--x-x-7--x-x-7--x-x-7--x-x-7--------|
A---------------------------------------------------|
E---------------------------------------------------|

  oh oh oh ooh    we're all the same in the core
E-----------------------------------------------------|
B-----------------------------------------------------|
G-x-x-7--x-x-7----------7---------------9------12-11--|
D-x-x-7--x-x-7----------7---------------9------12-11--|
A-----------------------------------------------------|
E----------------0--0-0----------0--0-0---------------|

Pre-Chorus

          can you feel it        inside
E------------------------------------------|
B------------------------------------------|
G------------------------------------------|
D--7--5--7----------------7--5--7----------|
A--7--5--7----------------7--5--7----------|
E--5--3--5----------------5--3--5----------|

E---------------------------------------------|
B---------------------------------------------|
G---9--7--9--------------9--7--9--------------|
D---9--7--9--------------9--7--9--------------|
A---------------------------------------------|
E------------0--0-0-0-0-----------0--0-0-0-0--|

           we deliver         to ya mind
E--------------------------------------|
B--------------------------------------|
G--------------------------------------|
D--7--5--7------------7--5--7----------|
A--7--5--7------------7--5--7----------|
E--5--3--5------------5--3--5----------|

Chorus

E-----------------------------------------------|
B-----------------------------------------------|
G--7-7-7-7/9--7-7-7-7/9--7-7-7-7/9--7-7---------|
D--7-7-7-7/9--7-7-7-7/9--7-7-7-7/9--7-7-7-7-----|
A--5-5-5-5/7--5-5-5-5/7--5-5-5-5/7--5-5-7-7-----|
E---------------------------------------5-5-----|

E------------------------------------------------|
B------------------------------------------------|
G--7-7-7-7/9--7-7-7-7/9--7-7-7-7/9---------------|
D--7-7-7-7/9--7-7-7-7/9--7-7-7-7/9---------------|
A--5-5-5-5/7--5-5-5-5/7--5-5-5-5/7--3h5p3-7p5-7--|
E------------------------------------------------|

E-----------------------------------------------|
B-----------------------------------------------|
G--7-7-7-7/9--7-7-7-7/9--7-7-7-7/9--7-7---------|
D--7-7-7-7/9--7-7-7-7/9--7-7-7-7/9--7-7-7-7-----|
A--5-5-5-5/7--5-5-5-5/7--5-5-5-5/7--5-5-7-7-----|
E---------------------------------------5-5-----|

E---------------------------------------------|
B---------------------------------------------|
G--7-7-7-7/9--7-7-7-7/9--7-7-7-7/9--5---------|
D--7-7-7-7/9--7-7-7-7/9--7-7-7-7/9--5--5--2---|
A--5-5-5-5/7--5-5-5-5/7--5-5-5-5/7--3--5--2---|
E--------------------------------------3--0---|

/-Slide
x-scratch (mute)
Добавлено: 22.06.2012
Другие материалы по этой песне:
  • Аккорды и текст

Страница создана 22.06.2012
http://primanota.ru/crashdiet/needle-in-your-eye-chords.htm
Привет, Гость.
Предлагаем пройти революционный курс по гитаре.
Подарок от PrimaNota.Ru, забирай!