PrimaNota.ru - самый крупный в мире бесплатный архив песенных текстов, аккордов, табулатур и нот


Crashdiet - Knokk Em Down - таба, видео

Регистрация Запомнить меня
Войти через:  Facebook Google Twitter Vk Yandex Mail.ru

Crashdiet - Knokk Em Down - таба, видео

Печатать
Просмотров: 140
Crashdiet - Knokk em Down (Rest in Sleaze)

On the record (Rest in Sleaze) its tuned: Eb tuning/ half step down

When they play it live they play the same thing but in: D tuning/ 1 step down/ DGCFAD


Intro:

E---------------------------|
B---------------------------|
G---------9-7----7-7----5---|
D--5-2----7-5----5-4----5---|
A--5-2------------------3---|
E--3-0----------------------|

E--------------------------------------------------------|
B--------------------------------------------------------|
G--------9-7--7/9/7--7--7-7--7------4--4--7/9--7---5-----|
D---2----7-5--5/7/5--5--5-4--4/5/4--2--2--5/7--5---5-----|
A---2----------------------------------------------3-----|
E---0----------------------------------------------------|


Verse:
E--------------------------------------------------------|
B--------------------------------------------------------|
G--------9-7----7-7----7-4----4-7----7-9----9-5-5--2-2---|
D---2----7-5----5-4----4-2----2-5----5-7----7-5-5--2-2---|
A---2-----------------------------------------3-3--0-0---|
E---0----------------------------------------------------|

                               Oh oh oh...
E-------------------------------------------------------|
B-------------------------------------------------------|
G--------9-7----7-7----7-4----9-9-9-9-9------5-5--7-7---|
D---2----7-5----5-4----4-2----9-9-9-9-9------5-5--7-7---|
A---2-------------------------7-7-7-7-7------3-3--5-5---|
E---0---------------------------------------------------|


Pre-Chorus:

     there aint on playing  just working no more  so belive me when I say this
E-------------------------------------------------------------------------------|
B-------------------------------------------------------------------------------|
G---------------------------------------------------------------------5---5-----|
D--5/7--7--7--7--7--7----5/7--7--7--7--7-----7/9--9--9--9--9--9-------5---5-----|
A--5/7--7--7--7--7--7----5/7--7--7--7--7-----7/9--9--9--9--9--9-------3---3-----|
E--3/5--5--5--5--5--5----3/5--5--5--5--5-----5/7--7--7--7--7--7-----------------|


Chorus:

  they line you up, they knock yo down you're forced to feed 'em day n' nite
E--------------------------------------------------------------------|
B--------------------------------------------------------------------|
G-----------------------9--7-----------------------------------------|
D---2---5---7-----------9--7-----------------6-------7------5/7------|
A---2---5---7-----------7--5-----------------6-------7------5/7------|
E---0---3---5--------------------------------4-------5------3/5------|

now is that how you want it...NO!!! what ya gonna do about it...
E-------------------------------------------------------------|
B-------------------------------------------------------------|
G----5--------------7-----------------5-----------------7--4--|
D----5--------------7-----------------5-----------------7--4--|
A----3--------------5-----------------3-----------------5--2--|
E-------------------------------------------------------------|

  well line 'em up and knock 'em down coz you got balls and that's no crime
E--------------------------------------------------------------------|
B--------------------------------------------------------------------|
G-----------------------9--7-----------------------------------------|
D---2---5---7-----------9--7-----------------6-------7------5/7------|
A---2---5---7-----------7--5-----------------6-------7------5/7------|
E---0---3---5--------------------------------4-------5------3/5------|

if you really don't like it just show 'em you strike it back
E-----------------------------------------------------------|
B-----------------------------------------------------------|
G----5--------------7------------5-----------------7--------|
D----5--------------7------------5-----------------7--------|
A----3--------------5------------3-----------------5--------|
E-----------------------------------------------------------|

Solo rythm guitar:

E---------------------------------------------------|
B---------------------------------------------------|
G--2-----------2------------------------------------|
D--2-----------2-----------2-----------2------------|
A--0-0-0-0-0-0-0-0-0-0-0-0-2-----------2------------|
E--------------------------0-0-0-0-0-0-0-0-0-0-0-0--|

E---------------------------------------------------|
B---------------------------------------------------|
G--2-----------2------------------------------------|
D--2-----------2-----------2-----------2------------|
A--0-0-0-0-0-0-0-0-0-0-0-0-2-----------2------------|
E--------------------------0-0-0-0-0-0-0-0-0-0-0-0--|

E---------------------------------------------------|
B---------------------------------------------------|
G--5-----------5------------------------------------|
D--5-----------5-----------2-----------2------------|
A--3-3-3-3-3-3-3-3-3-3-3-3-2-----------2------------|
E--------------------------0-0-0-0-0-0-0-0-0-0-0-0--|

E---------------------------------------------------|
B---------------------------------------------------|
G--5-----------5-----------4------------7--7--4--4--|
D--5-----------5-----------4------------7--7--4--4--|
A--3-3-3-3-3-3-3-3-3-3-3-3-2-2-2-2-2-2--5--5--2--2--|
E---------------------------------------------------|

Outro:

E-------------------------------------------------------------------------|
B-------------------------------------------------------------------------|
G--9-----9-----7-----7/9-9-----9-----7-----7/9-9-----9-----7-----7/9--5---|
D--9-----9-----7-----7/9-9-----9-----7-----7/9-9-----9-----7-----7/9--5---|
A--7-----7-----5-----5/7-7-----7-----5-----5/7-7-----7-----5-----5/7--3---|
E----0-0---0-0---0-0-------0-0---0-0---0-0-------0-0---0-0---0-0----------|

E-------------------------------------------------------------------------|
B-------------------------------------------------------------------------|
G--9-----9-----7-----7/9-9-----9-----7-----7/9-9-----9-----7-----7/9--9---|
D--9-----9-----7-----7/9-9-----9-----7-----7/9-9-----9-----7-----7/9--9---|
A--7-----7-----5-----5/7-7-----7-----5-----5/7-7-----7-----5-----5/7--7---|
E----0-0---0-0---0-0-------0-0---0-0---0-0-------0-0---0-0---0-0----------|
Добавлено: 18.06.2012
Другие материалы по этой песне:
  • Аккорды и текст

Страница создана 18.06.2012
http://primanota.ru/crashdiet/knokk-em-down-chords.htm
Привет, Гость.
Предлагаем пройти революционный курс по гитаре.
Подарок от PrimaNota.Ru, забирай!