PrimaNota.ru - самый крупный в мире бесплатный архив песенных текстов, аккордов, табулатур и нот


Crashdiet - Down With The Dust - таба, видео

Регистрация Запомнить меня
Войти через:  Facebook Google Twitter Vk Yandex Mail.ru

Crashdiet - Down With The Dust - таба, видео

Печатать
Просмотров: 225
Down With the Dust - Crashdiet (Generation Wild)

On the record its i Eb tuning/ half step down
When they play it live they play the same thing but in D tuning/ 1 step down/ DGCFAD

Intro:

E-----------------------------------------------------------------------------------------|
B-----------------------------------------------------------------------------------------|
G--9-----------5-----------7-----------5-----------9-----------5-----------7-----------5--|
D--9-----------5-----------7-----------5-----------9-----------5-----------7-----------5--|
A--7-----------3-----------5-----------3-----------7-----------3-----------5-----------3--|
E----0-0-0-0-0---0-0-0-0-0---0-0-0-0-0---0-0-0-0-0---0-0-0-0-0---0-0-0-0-0---0-0-0-0-0----|

E--------------------------------------------------------------------------------------|
B--------------------------------------------------------------------------------------|
G-----------------9-9--7/9/7--5---9-9----------------9-9--7/9/7--5--9-9----------------|
D--------2--4-5---9-9--7/9/7--5---9-9-10-9-7---------9-9--7/9/7--5--9-9--------2--4-5--|
A--2-4-5----------7-7--5/7/5--3---7-7--------10-9-7--7-7--5/7/5--3--7-7--2-4-5---------|
E--------------------------------------------------------------------------------------|

Vers:

E-----------------------------------------------------------------------------------------|
B-----------------------------------------------------------------------------------------|
G--9-----------7-----------5-----------7-----------------------7-----------5-----------7--|
D--9-----------7-----------5-----------7-----------------------7-----------5-----------7--|
A--7-----------5-----------3-----------5-----------------------5-----------3-----------5--|
E----0-0-0-0-0---0-0-0-0-0---0-0-0-0-0---0-0-0-0-0-0-0-0-0-0-0---0-0-0-0-0---0-0-0-0-0----|

Pre-Chorus:

E----------------------------------------------------------|
B----------------------------------------------------------|
G---4----2----0----2-----4----2----0---5--7-7-7-7-7-7-7-7--|
D----5----4----2----4-----5----4----2--5--7-7-7-7-7-7-7-7--|
A--------------------------------------3--5-5-5-5-5-5-5-5--|
E-0----0----0----0-----0----0----0-------------------------|

Chorus:
E-----------------------------------------------------------------------|
B-----------------------------------------------------------------------|
G---9-9--7/9/7--5---9-9----------------9-9--7/9/7--5--9-9---------------|
D---9-9--7/9/7--5---9-9-10-9-7---------9-9--7/9/7--5--9-9-------2--4-5--|
A---7-7--5/7/5--3---7-7--------10-9-7--7-7--5/7/5--3--7-7-2-4-5---------|
E-----------------------------------------------------------------------|

Rythm guitar in the solo is the pre-chorus first and then the chorus

Solo:
(this is only the first part i dont know the rest yet)

E---------------------------------------------------------------|
B---10b-8---10b-8---10b-8--8-10---10b-8---10b-8---10b---15b-15--|
G---------------------------------------------------------------|
D---------------------------------------------------------------|
A---------------------------------------------------------------|
E---------------------------------------------------------------|

/ = slide
B = bend
Добавлено: 23.07.2012
Другие материалы по этой песне:
  • Аккорды и текст

Страница создана 23.07.2012
http://primanota.ru/crashdiet/down-with-the-dust-chords.htm
Привет, Гость.
Предлагаем пройти революционный курс по гитаре.
Подарок от PrimaNota.Ru, забирай!