PrimaNota.ru - самый крупный в мире бесплатный архив песенных текстов, аккордов, табулатур и нот


Crashdiet - Cocaine Cowboys - таба, видео

Регистрация Запомнить меня
Войти через:  Facebook Google Twitter Vk Yandex Mail.ru

Crashdiet - Cocaine Cowboys - таба, видео

Печатать
Просмотров: 266
Cocaine Cowboys - Crashdïet


Tuning: Half step down/ Eb


[Acoustic slide intro]

eb|-----------------------------------|
Bb|-----------------------------------|
Gb|----------------------------2/7-7--|
Db|---2/5\2-------5/7-7--5\2---2/7-7--|
Ab|---2/5\2-------5/7-7--5\2----------|
Eb|---------0-0-0------------0--------|


[Main riff]
do small quick bends on the 3s before pulling off

eb|-------------------------------|
Bb|-------------------------------|
Gb|-------------------------------|
Db|--------2-2-------------2--7---|
Ab|--------2-2-------------2--5---|
Eb|---3p0--0-0---3p0--3p0--0------|


[Verse]
just alot of scratching around fret 1-5 alternating strokes down-up-down-up etc

eb|---x-x-x-x-x-x-x-x-x-x----------------|
Bb|---x-x-x-x-x-x-x-x-x-x----------------|
Gb|---x-x-x-x-x-x-x-x-x-x----------------|
Db|---x-x-x-x-x-x-x-x-x-x----------------|
Ab|---x-x-x-x-x-x-x-x-x-x-----------5\---|
Eb|---x-x-x-x-x-x-x-x-x-x--3p2p0-3-------|


[Pre-Chorus]

Aint is sick but kinda fascinating....
eb|------------------------|
Bb|------------------------|
Gb|---2--------------------|
Db|---2--------------------|
Ab|---0--------------------| (then do a pick slide on the lowest strings)
Eb|------------------------|


[Chorus]

eb|---0---3----------|--0---3------------------------|
Bb|---0---3---3------|--0---3---3--------------------|
Gb|---x---0---2---2--|--x---0---2--------------------|
Db|---2---0---0---2--|--2---0---0---0-0-0-0-0-0-0-0--|
Ab|---2---x-------0--|--2---x------------------------|
Eb|---0---3----------|--0---3------------------------|

eb|---0---3----------|--0---3-------|-----------|
Bb|---0---3---3------|--0---3---3---|-----------|
Gb|---x---0---2---2--|--x---0---2---|---5---7---|
Db|---2---0---0---2--|--2---0---0---|---5---7---|
Ab|---2---x-------0--|--2---x-------|---3---5---|
Eb|---0---3----------|--0---3-------|-----------|


[Rhythm guitar during solo]

eb|--------------------------|
Bb|--------------------------|
Gb|---5-----7-----5-----7----|
Db|---5-----7-----5-----7----|
Ab|---3-----5-----3-----5----|
Eb|--------------------------|


[Bridge/break]
same chords as the chorus (only with lower volume)
until the "aint it sick" part:

eb|----------------|
Bb|----------------|
Gb|----2------4----|
Db|----2------4----|
Ab|----0------2----|
Eb|----------------|
then back to the chorus

end of the last chorus:
taken all these lives...
eb|---------------|----------------------------------------------------|
Bb|---------------|----------------------------------------------------|
Gb|---5------7----|---9--9--9--9--9--9--9--9--11-11-11-11-11-11-11-11--|
Db|---5------7----|---x--x--x--x--x--x--x--x--x--x--x--x--x--x--x--x---|
Ab|---3------5----|---7--7--7--7--7--7--7--7--9--9--9--9--9--9--9--9---|
Eb|---------------|----------------------------------------------------|


************************************

| /   slide up
| \   slide down
| h   hammer-on
| p   pull-off
| ~   vibrato
| +   harmonic
| x   Mute note
| b   Bend
| pb  Pre-bend
| br  Bend release
| pbr Pre-bend release
| brb Bend release bend

************************************
Добавлено: 28.11.2013
Другие материалы по этой песне:
  • Аккорды и текст

Страница создана 28.11.2013
http://primanota.ru/crashdiet/cocaine-cowboys-chords.htm
Привет, Гость.
Предлагаем пройти революционный курс по гитаре.
Подарок от PrimaNota.Ru, забирай!