PrimaNota.ru - самый крупный в мире бесплатный архив песенных текстов, аккордов, табулатур и нот


Crashdiet - Chemical - текст песни, таба, видео

Регистрация Запомнить меня
Войти через:  Facebook Google Twitter Vk Yandex Mail.ru

Crashdiet - Chemical - текст песни, таба, видео

Печатать
Просмотров: 442
Уроки эстрадного вокала в Санкт-Петербурге
Chemical - Crashdiet (Generation Wild)

Update: Solo

On the record: Eb Tuning/ half step down
Live: D tuning/ 1 step down/ DGCFAD

Intro:

part 1
E--2-2-2-2-2-2-2-2-----|
B--3-3-3-3-3-3-3-3-----|
G--2-2-2-2-2-2-2-2-----|
D--0-0-0-0-0-0-0-0-----|
A----------------------|
E----------------------|

part 2

Guitar 1 (Clean)
E------------------------------------3--------|
B----------------------------------3---3---3--|
G----0--0-----0--0-----0--0------2-------2----|
D-----------------------------0---------------|
A--3--3--3--2--2--2--1--1--1------------------|
E---------------------------------------------|

Guitar 2 (Dist)
E--3-------3-------3--------3-----|
B--3-------3-------3--------3-----|
G--0-------0-------0--------2-----|
D--x-------x-------x--------0-----|
A--3-------2-------1--------------|
E---------------------------------| x2

E--3-3-3-3-3-3--3-3-3-3-3-3--3-3-3-3-3-3--3-3-3-3-3-3-----|
B--3-3-3-3-3-3--3-3-3-3-3-3--3-3-3-3-3-3--3-3-3-3-3-3-----|
G--0-0-0-0-0-0--0-0-0-0-0-0--0-0-0-0-0-0--2-2-2-2-2-2-----|
D--x-x-x-x-x-x--x-x-x-x-x-x--x-x-x-x-x-x--0-0-0-0-0-0-----|
A--3-3-3-3-3-3--2-2-2-2-2-2--1-1-1-1-1-1------------------|
E---------------------------------------------------------| x2

Vers:

  D          G         Bb
E-----|   E--3--|   E-----|
B--7--|   B--3--|   B--3--|
G--7--|   G--0--|   G--3--|
D--7--|   D--0--|   D--3--|
A--5--|   A--2--|   A--1--|
E-----|   E--3--|   E-----|

D
Dont you know

it runs deep down in my bones
       G
And I want it now
          Bb
I need it now

D
Cant you see

this deep route misery
      G
that you inflict
             Bb
It makes me sick

Chorus:

Guitar 1 (Clean)
E------------------------------------3--------|
B----------------------------------3---3---3--|
G----0--0-----0--0-----0--0------2-------2----|
D-----------------------------0---------------|
A--3--3--3--2--2--2--1--1--1------------------|
E---------------------------------------------|

Guitar 2 (Dist)
E--3-3-3-3-3-3--3-3-3-3-3-3--3-3-3-3-3-3--3-3-3-3-3-3-----|
B--3-3-3-3-3-3--3-3-3-3-3-3--3-3-3-3-3-3--3-3-3-3-3-3-----|
G--0-0-0-0-0-0--0-0-0-0-0-0--0-0-0-0-0-0--2-2-2-2-2-2-----|
D--x-x-x-x-x-x--x-x-x-x-x-x--x-x-x-x-x-x--0-0-0-0-0-0-----|
A--3-3-3-3-3-3--2-2-2-2-2-2--1-1-1-1-1-1------------------|
E---------------------------------------------------------|

Bridge:
(i dont know what else to call it)

   All I need is another hit  yeah one last fix to keep the blues at bay
E--------------------------------------------------------------------------|
B--------------------------------------------------------------------------|
G--9--9--9--9--9--9--9--9--9--9--9--5--5--5--5--5--5--5--5--5--5--5--5--7--|
D--9--9--9--9--9--9--9--9--9--9--9--5--5--5--5--5--5--5--5--5--5--5--5--7--|
A--7--7--7--7--7--7--7--7--7--7--7--3--3--3--3--3--3--3--3--3--3--3--3--5--|
E--------------------------------------------------------------------------|

  All I need is another kick just one last kiss of death and I'll be on my way
E--------------------------------------------------------------------------------|
B--------------------------------------------------------------------------------|
G--7--7--7--7--7--7--7--7--7--7--9--9--9--9--9--9--9--9--9--9--9--9--9--9--9--9--|
D--7--7--7--7--7--7--7--7--7--7--9--9--9--9--9--9--9--9--9--9--9--9--9--9--9--9--|
A--5--5--5--5--5--5--5--5--5--5--7--7--7--7--7--7--7--7--7--7--7--7--7--7--7--7--|
E--------------------------------------------------------------------------------|

   All I need is another hit  yeah one last fix to keep the blues at bay
E--------------------------------------------------------------------------|
B--------------------------------------------------------------------------|
G--9--9--9--9--9--9--9--9--9--9--9--5--5--5--5--5--5--5--5--5--5--5--5--7--|
D--9--9--9--9--9--9--9--9--9--9--9--5--5--5--5--5--5--5--5--5--5--5--5--7--|
A--7--7--7--7--7--7--7--7--7--7--7--3--3--3--3--3--3--3--3--3--3--3--3--5--|
E--------------------------------------------------------------------------|

  All I need is another kick  just one last fix of that feelgood chemical
E--------------------------------------------------------------------------|
B--------------------------------------------------------------------------|
G--7--7--7--7--7--7--7--7--7--7--9--9--9--9--9--9--9--9--9--9--9--9--9--9--|
D--7--7--7--7--7--7--7--7--7--7--9--9--9--9--9--9--9--9--9--9--9--9--9--9--|
A--5--5--5--5--5--5--5--5--5--5--7--7--7--7--7--7--7--7--7--7--7--7--7--7--|
E--------------------------------------------------------------------------|

Solo:
The rythm guitar in the solo is the same as the bridge and in the end its
the chorus (you hear when it changes)

E-----------------------------------------------------------------------------------------|
B--15--15--15--15--15----15------15------15---13------13------13--------------------------|
G--12b-12b-12b-12b-12b-12--12-12---12-12---12---12-12---12-12---12---11h12--11-7-12-11-7--|
D-----------------------------------------------------------------------------------------|
A-----------------------------------------------------------------------------------------|
E-----------------------------------------------------------------------------------------|

E--------------------------------15--12-14-15-14-12h14p12---19-19b-19-19b-19b-17-15--|
B-----8------15b-15b-15b-15b-13--------------------------15--------------------------|
G--7b---7br--------------------------------------------------------------------------|
D------------------------------------------------------------------------------------|
A------------------------------------------------------------------------------------|
E------------------------------------------------------------------------------------|

E--15h17p15------------------------------------------------|
B-----------17-15------------------------------------------|
G-----------------17-14-14-15-17---16b-16--12--14--14b-14--|
D----------------------------------------------------------|
A----------------------------------------------------------|
E----------------------------------------------------------|

b = Bend
P = pull off
h = hammer on
x = mute string
Добавлено: 10.05.2012
Другие материалы по этой песне:

Страница создана 05.05.2012
http://primanota.ru/crashdiet/chemical-chords.htm
Привет, Гость.
Предлагаем пройти революционный курс по гитаре.
Подарок от PrimaNota.Ru, забирай!