PrimaNota.ru - самый крупный в мире бесплатный архив песенных текстов, аккордов, табулатур и нот


Crashdiet - Caught In Despair - текст песни, таба, видео

Регистрация Запомнить меня
Войти через:  Facebook Google Twitter Vk Yandex Mail.ru

Crashdiet - Caught In Despair - текст песни, таба, видео

Печатать
Просмотров: 145
-------------------------------------------------------------------------------
                             Caught In Despair - Crashdiet
-------------------------------------------------------------------------------
Tabbed by:Glamman
Email:sam_blinkdude@hotmail.com

Tuning:half step down                  hey cheers for checking this out
                                       i will finnish it as soon as possible
                                       and do solo when I have a high e.
intro
e|---------------------------------------------------------------------------------|
B|---------------------------------------------------------------------------------|
G|---------------------------------------------------------------------------------|
D|--2-22-----55-----55---4h5p42----------------------------------------------------|
A|--2--------------------------------X2--------------------------------------------|
E|--00--00000--00000--000----------------------------------------------------------|
intro part 2
e|---------------------------------------------------------------------------------|
B|------------------------------5-----5-----5--------------------------------------|
G|--9-----9-7-----7-6-----6-5----5-----5-----5--------4-5-7-5----------------------|
D|--9-----9-7-----7-7-----7-5--5-----5-----5-----7----4-5-7-5------X2--------------|
A|--7-----7-5-----5-4-----4-3-----3-3---3-3---3--7----2-3-5-3----------------------|
E|----000-----000-----000------------------------5-555-----------------------------|
verse
e|--------------------------------------------------------------------------------|
B|--------------------------------------------------------------------------------|
G|---5-5-7-9----5-5-7-9-----------------------------------------------------------|
D|-2-5-5-7-9--2-5-5-7-9----X4-----------------------------------------------------|
A|-2-3-3-5-7--2-3-3-5-7-----------------------------------------------------------|
E|-0-------0--0-------0-----------------------------------------------------------|
bridge
e|---------------------------------------------------------------------------------|
B|---------------------------------------------------------------------------------|
G|--11-9-8-7--11-9-8-7--9----------------------------------------------------------|
D|--11-9-9-7--11-9-9-7--9----------------------------------------------------------|
A|--9--7-6-5--9--7-6-5--7----------------------------------------------------------|
E|---------------------------------------------------------------------------------|
chorus
e|---------------------------------------------------------------------------|
B|---------------------------------------------------------------------------|
G|---------------------------------------------------------------------------|
D|-7----7----7----7----7---7--4----4----4----4----4---4-6----6----6----------|
A|-9-99-9-99-9-99-9-99-9-9-9--5-55-5-55-5-55-5-55-5-5-5-7-77-7-77-7----------|
E|---------------------------------------------------------------------------|

e|-------------------------------------------------------------------------------|
B|-------------------------------------------------------------------------------|
G|-------------1111\-9-----1111\-9-----------------------------------------------|
D|--77-6-7--4--x-x---x-----x-x---x-----------------------------------------------|
A|--77-6-7--4--9-9-\-7-----9-9-\-7-----------------------------------------------|
E|--55-4-5--2----------0000------------------------------------------------------|


| /  slide up
| \  slide down
| h  hammer-on
| p  pull-off
| ~  vibrato
| +  harmonic
| x  Mute note
===============================================================================
Добавлено: 06.03.2012
Другие материалы по этой песне:
  • Аккорды и текст

Страница создана 06.03.2012
http://primanota.ru/crashdiet/caught-in-despair-chords.htm
Привет, Гость.
Предлагаем пройти революционный курс по гитаре.
Подарок от PrimaNota.Ru, забирай!