PrimaNota.ru - самый крупный в мире бесплатный архив песенных текстов, аккордов, табулатур и нот


Crashdiet - Breakin The Chainz - таба, видео

Регистрация Запомнить меня
Войти через:  Facebook Google Twitter Vk Yandex Mail.ru

Crashdiet - Breakin The Chainz - таба, видео

Печатать
Просмотров: 180
D tuning/one step down

Intro:

E------------------------------------------------------|
B------------------------------------------------------|
G------------------------------------------------------|
D-2-2-2-2-2-2-2-2-2-2-2-2-2-2-2-2-2-2-2-2-2-2-2-2-2-2--|
A-2-2-2-2-2-2-2-2-2-2-2-2-2-2-2-2-2-2-2-2-2-2-2-2-2-2--|
E-0-0-0-0-0-0-0-0-0-0-0-0-0-0-0-0-0-0-0-0-0-0-0-0-0-0--|

E----------------------------------|
B----------------------------------|
G----------5-------7-------9-------|
D--2-------5-------7-------9-------|
A--2-------3-------5-------7-------|
E--0-----------------------0-------|

Intro solo:

E--12--12---14--14---15---17---22-22b-----|
B--15b-15b--17b-17b--18b--20b-------------|
G-----------------------------------------|
D-----------------------------------------|
A-----------------------------------------|
E-----------------------------------------|

Vers:

E----------------------------------|
B----------------------------------|
G----------5-------7-------9-------|
D--2-------5-------7-------9-------|
A--2-------3-------5-------7-------|
E--0-----------------------0-------|

Pre chorus:
(you dont have to play the picking notes)

E-------------------------------|
B-----------------5-----7-------|
G--9--7--5----5-----5-----5-----|
D--9--7--5--5---5-----5-----5---|
A--7--5--3----------------------|
E-------------------------------| 2x

3rd time:
E------------------------------|
B-----------------5------------|
G--9--7--5----5-----5----4-----|
D--9--7--5--5---5-----5--4-----|
A--7--5--3---------------2-----|
E------------------------------|

Chorus:

E--------------------------------|-------------------------------|
B--------------------------------|-------------------------------|
G------9-7-9---------------5--7--|-----9-7-9--------------5---4--|
D------9-7-9---------------5--7--|-----9-7-9--------------5---4--|
A------7-5-7------0-2------3--5--|-----7-5-7-----0-2------3---2--|
E--0-0--------0-0-----3-0--------|-0-0-------0-0-----3-0---------|

In the second chorus it changes in the end like this:
E--------------------------------|------------------------------------------|
B--------------------------------|------------------------------------------|
G------9-7-9---------------5--7--|-----9-7-9--------------5--7--4-----------|
D------9-7-9---------------5--7--|-----9-7-9--------------5--7--4-------2---|
A------7-5-7------0-2------3--5--|-----7-5-7-----0-2------3--5--2-------2---|
E--0-0--------0-0-----3-0--------|-0-0-------0-0-----3-0----------------0---|


Solo Rythm Guitar:

E----------------------------------|
B----------------------------------|
G--7--------7--------5---------5---|
D--7--------7--------5---------5---|
A--5--------5--------3---------3---|
E----------------------------------|  2x

Solo:

E----10--15--14--10--15--14--10-10\8---------------------------|
B--10--10--10--10--10--10--10---10\8---------------------------|
G-------------------------------------10/12-9h10p9--7b-7-5-7---|
D--------------------------------------------------------------|
A--------------------------------------------------------------|
E--------------------------------------------------------------|

E--------------------------------------------------------------|
B------7--7h8p7-10p7-8p7-10p7-8p7-10p8--7\5--------------------|
G--7h9----------------------------------7\5--4h5p4-----4-------|
D--------------------------------------------------7-5---5-7---|
A--------------------------------------------------------------|
E--------------------------------------------------------------|

The part with heavy drums (Bridge)
rythm:

E------------------------------------------------------|
B------------------------------------------------------|
G------------------------------------------------------|
D-2-2-2-2-2-2-2-2-2-2-2-2-2-2-2-2-2-2-2-2-2-2-2-2-2-2--|
A-2-2-2-2-2-2-2-2-2-2-2-2-2-2-2-2-2-2-2-2-2-2-2-2-2-2--|
E-0-0-0-0-0-0-0-0-0-0-0-0-0-0-0-0-0-0-0-0-0-0-0-0-0-0--|

  ALL!  IS!  RIGHT!
E------------------------|
B------------------------|
G-9-----9-----9-----9----|
D-9-----9-----9-----9----|
A-7-----7-----7-----7----|
E------------------------|

Lead:
(slowly)
E--------------------------|
B--5-----7-----8-----10----|
G--7b----9b----10b---12b---|
D--------------------------|
A--------------------------|
E--------------------------|

(fast)
  ALL!  IS!  RIGHT!
E--12---14----15----17--22b-22b-22b-22b---|
B--15b--17b---18b---19b-------------------|
G-----------------------------------------|
D-----------------------------------------|
A-----------------------------------------|
E-----------------------------------------|

b - bend
/ - slide
p - pull-off
h - hammer-on
Добавлено: 25.05.2012
Другие материалы по этой песне:

Страница создана 25.05.2012
http://primanota.ru/crashdiet/breakin-the-chainz-chords.htm
Привет, Гость.
Предлагаем пройти революционный курс по гитаре.
Подарок от PrimaNota.Ru, забирай!