PrimaNota.ru - самый крупный в мире бесплатный архив песенных текстов, аккордов, табулатур и нот


Crashdiet - Beautiful Pain - аккорды и текст, видео

Регистрация Запомнить меня
Войти через:  Facebook Google Twitter Vk Yandex Mail.ru

Crashdiet - Beautiful Pain - аккорды и текст, видео

Печатать
Просмотров: 289
Beautiful Pain
Crashdiet
Beautiful Pain - Crashdiet (Generation Wild)

Tuning:
On the record: half step down/ Eb
Live: 1 step down/ DGCFAE/ D tuning

Intro:
  Em                                 G
E--------------------------------------------5----------------5---------|
B----------7---8------------7---8--------8-----8---8------8-----8---8---|
G------9-----9---9------9-----9---9----7---7-----7------7---7-----7-----|
D----9---9------------9---9----------5----------------5-----------------|
A--7----------------7---------------------------------------------------|
E-----------------------------------------------------------------------|
   D                                 C
E-----------------------------------------------------------------------|
B----------5----------------5----------------3----------------3---------|
G------7-----7---7------7-----7---7------5-----5---5------5-----5---5---|
D----7---7-----7------7---7-----7------5---5-----5------5---5-----5-----|
A--5----------------5----------------3----------------3-----------------|
E-----------------------------------------------------------------------|

[Verse 1]:
Em                               
when i was a little boy i didnt know whats right or wrong
   G
i had to change my way of life, but i just couldnt win the fight
   D                             C
i let myself float off in time   and hide.

Em
another day, another night i lived off dreams i thought was right
       G
but i couldnt stand being treated like i was the only without rights
D                               C       Em
stood there screaming out your vice   and cry


[Pre-Chorus]:
C            Em
the way you love me
    G     F#       Em       D
is not always what we call love
C        D
waiting now 


[Chorus]:
          Em Bm  C  G  Em        Bm    C  
beautiful pain         beautiful pain,
D        Em  C  A  D        Em  C  A  D
beautiful pain     beautiful pain     beautiful...


[Interlude]:
Em, G, D, C


[Verse] 2:
Em
in the dirt and in my soil they said they planted seeds of joy
   G
i was unholy born in sin so they fed me words of lead within
    D                          C             Em
i looked down on myself in shame  left with the blame


[Pre-Chorus]:
C            Em
the way you love me
    G     F#       Em       D
is not always what we call love
C        D
waiting now 


[Chorus]:
          Em Bm  C  G  Em        Bm    C  
beautiful pain         beautiful pain,
D        Em  C  A  D        Em  C  A  D         Em
beautiful pain     beautiful pain     beautiful...

[Guitar Solo]:
G, Bm, Em x3
C, Bm, D

[End of the solo]:
  Em                                 G
E--------------------------------------------5----------------5---------|
B----------7---8------------7---8--------8-----8---8------8-----8---8---|
G------9-----9---9------9-----9---9----7---7-----7------7---7-----7-----|
D----9---9------------9---9----------5----------------5-----------------|
A--7----------------7---------------------------------------------------|
E-----------------------------------------------------------------------|
   D                C
E-------------------------------------|
B----------5---------------3----------|
G------7-----7---7------5-----5---5---|
D----7---7-----7------5---5-----5-----|
A--5----------------3-----------------|
E-------------------------------------|

[Verse 3]:
Em
mother father listen up i know these times were kind of rough
    G
we waited for the leaders hand to guide our lives its kind of sad
     D                                   C        Em
and you just did what you thought was right and i cried


[Chorus]:
          Em Bm  C  G  Em        Bm    C  
beautiful pain         beautiful pain,
D        Em  C  A  D        Em  C  A  
beautiful pain     beautiful pain
D         Em Bm  C  G  Em        Bm    C  
beautiful pain         beautiful pain,
D        Em  C  A  D        Em  C  A  D         Em
beautiful pain     beautiful pain     beautiful...


[Chords]:
  Em        G         D         C         Bm        A         F#
E--0--|   E--3--|   E--2--|   E--0--|   E--2--|   E--0--|   E--2--|
B--0--|   B--3--|   B--3--|   B--1--|   B--3--|   B--2--|   B--2--|
G--0--|   G--0--|   G--2--|   G--0--|   G--4--|   G--2--|   G--3--|
D--2--|   D--0--|   D--0--|   D--2--|   D--4--|   D--2--|   D--4--|
A--2--|   A--2--|   A-----|   A--3--|   A--2--|   A--0--|   A--4--|
E--0--|   E--3--|   E-----|   E-----|   E-----|   E-----|   E--2--|
Добавлено: 18.04.2012
Другие материалы по этой песне:

Страница создана 18.04.2012
http://primanota.ru/crashdiet/beautiful-pain-chords.htm
Привет, Гость.
Предлагаем пройти революционный курс по гитаре.
Подарок от PrimaNota.Ru, забирай!