PrimaNota.ru - самый крупный в мире бесплатный архив песенных текстов, аккордов, табулатур и нот


Crashcarburn - Serenade - таба, видео

Регистрация Запомнить меня
Войти через:  Facebook Google Twitter Vk Yandex Mail.ru

Crashcarburn - Serenade - таба, видео

Печатать
Просмотров: 113
Artist: Crashcarburn
Song title: Serenade
Album: this city needs a hero

This is an awesome song, probably the best song off this album.
This is my best that i can do. Sorry. I hope that someone can make a proper tab for this song...

Enjoi...

Tuning: E a d g b e


INTRO


e-------------------------------|
b-------------------------------|
g-----6-5-6-13-8/10\8-----------|  x2
d-------------------------------|
a-------------------------------|
E-------------------------------|



e-------------------------------------------|
b-------------------------------------------|
g-------------13-8/10\8---------------------|
d-----8-10-11-------------------------------|
a-------------------------------------------|
E-------------------------------------------|


e---------------------------------------------|
b---------------------------------------------|
g---------------------------------------------|
d-----8-10-11-10-6-13-------------------------|
a---------------------------------------------|
E---------------------------------------------|


e-------------------------------|
b-------------------------------|
g-----6-5-6-13-8/10\8-----------|  x2
d-------------------------------|
a-------------------------------|
E-------------------------------|


e-------------------------------------------|
b-------------------------------------------|
g-------------13-8/10\8---------------------|
d-----8-10-11-------------------------------|
a-------------------------------------------|
E-------------------------------------------|


e---------------------------------------------|
b---------------------------------------------|
g---------------------------------------------|
d-----8-10-11-10-6-13-------------------------|
a---------------------------------------------|
E---------------------------------------------|


e-------------------------------|
b-------------------------------|
g-------------------------------|
d-----11-10-11-13-11-10---------|
a-------------------------------|
E-------------------------------|


e-------------------------------|
b-------------------------------|
g-------------------------------|
d-----11-10-11-13-11-10-11~ ----|
a-------------------------------|
E-------------------------------|

______________________________________________
Verse


e-------------------------|
b-------------------------|
g-------------------------|
d-----8-10/11-13-13\10/11-|
a-------------------------|
E-------------------------|


e-------------------------|
b-------------------------|
g-------------------------|
d-----8-10-11-8-----------|
a-------------------------|
E-------------------------|


e-------------------------|
b-------------------------|
g-------------------------|
d-----10-11-13------------|
a-------------------------|
E-------------------------|


e-------------------------|
b-------------------------|
g-------------------------|
d-----10-11~ -------------|
a-------------------------|
E-------------------------|


________________________________________________
Pre-Chorus


e-------------------------------------------|
b-------------------------------------------|
g-----6666666-8\6666666-8\6666666-8\6666666-|
d-------------------------------------------|
a-----4444444-6\4444444-6\4444444-6\4444444-|
E-------------------------------------------|

---------------------------------------|
---------------------------------------|
8888888-10\8888888-8\6666666-8\6666666-|
---------------------------------------|
6666666--8\6666666-6\4444444-6\4444444-|
---------------------------------------|


_____________________________________________________________________________________
Chorus


e------------------------------------------------------|
b------------------------------------------------------|
g----6-10-666-10-11-10-8-6-5-6-10-666-10-11-10-8-6-5-6-|
d------------------------------------------------------|
a------------------------------------------------------|
E------------------------------------------------------|


e------------------------------|
b------------------------------|
g-----6-10-6-6-10\8-10-6-6-5-6-|
d------------------------------|
a------------------------------|
E------------------------------|


__________________________________________________________
verse


e------------------------------------|
b------------------------------------|
d------------------------------------|
d------888888-11-888888-11-888888-11-|    x8   (hit the "11"
a------------------------------------|          on the drum beat)
E------------------------------------|
       ******************************

e------------------------------|
b------------------------------|
g------6-5-6-8-6-5-6-8-6-5-----|    xlots  (continue this for
d------------------------------|            some time, even when
a------------------------------|            the music becomes heavier)
E------------------------------|

then
e------------------------------|
b------------------------------|
g--------------13--------------|     x3
d-----11-10-11---11-10---------|
a------------------------------|
E------------------------------|


end of verse
e------------------------------|
b------------------------------|
g-----11-10-11-----------------|
d------------------------------|
a------------------------------|
E------------------------------|


__________________________________________________________
Chorus


e-----------------------------------------------------------|
b-----------------------------------------------------------|
g-----6-5-6-10-666-10-11-10-8-6-5-6-10-666-10-11-10-8-6-5-6-|
d-----------------------------------------------------------|
a-----------------------------------------------------------|
E-----------------------------------------------------------|
                                                                    X2
e------------------------------|
b------------------------------|
g-----6-10-6-6-10\8-10-6-6-5-6-|
d------------------------------|
a------------------------------|
E------------------------------|


___________________________________________________________
Quiet part

e------------------------------|
b------------------------------|
g-----6--8--5--10--------------|
d-----4--6--3--8---------------|
a------------------------------|
E------------------------------|


e--------------------------------|
b--------------------------------|
g-----------13----13----13-------|   }
d-----10/11----11----11----11\10-|   } all x4   (ending on the 10)
a--------------------------------|
E--------------------------------|


louder part

e----------------------------------    -------------|
b----------------------------------    -------------|
g-----666-10--13-------------------    ----------10-|
d----------------11-10-------------    ----10-11----|
a----------------------------------    -------------|
E----------------------------------    -------------|


e-----------------------------------------------|
b-----------------------------------------------|
g-----10-10-10-----------15-10-10-10------------|
d--------------11-11-10---------------11--10--8-|
a-----------------------------------------------|
E-----------------------------------------------|


---------------------------------------------------------------|
---------------------------------------------------------------|
--------------------10-10-10-10-10-10----15-10-----------------|
88888-11-11-11-11-11-----------------------------11-10-88888---|
---------------------------------------------------------------|
---------------------------------------------------------------|


------------------------------------------------------------------------|
------------------------------------------------------------------------|
-10-10-10-10-88888---------15-10-10-10-10-10--8-8-8-8-8-8----10-8-------|
-------------------11-11-11-------------------------------11------10-11-|
------------------------------------------------------------------------|
------------------------------------------------------------------------|


________________________________________________________________________
Outro



guitar 2

e-----------------|
b-----------------|
g-----------13----|     x3
d-----10-11----11-|
a-----------------|
E-----------------|


e----------------|
b----------------|
g-----------8----|
d-----10-11---10-|
a----------------|
E----------------|


e-----------------|
b-----------------|
g-----------13----|     x2
d-----10-11----11-|
a-----------------|
E-----------------|


e----------------|
b----------------|
g----------------|
d-----11-6-10-11-|
a----------------|
E----------------|


e-----------16----|
b-----13-14----14-|
g-----------------|        do this until the end.
d-----------------|
a-----------------|
E-----------------|

Final note:

b-----14~
Добавлено: 21.02.2012
Другие материалы по этой песне:

Страница создана 21.02.2012
http://primanota.ru/crashcarburn/serenade-chords.htm
Привет, Гость.
Предлагаем пройти революционный курс по гитаре.
Подарок от PrimaNota.Ru, забирай!