PrimaNota.ru - самый крупный в мире бесплатный архив песенных текстов, аккордов, табулатур и нот


Crash - Where Did The Rock Go Fixed Sry - таба, видео

Регистрация Запомнить меня
Войти через:  Facebook Google Twitter Vk Yandex Mail.ru

Crash - Where Did The Rock Go Fixed Sry - таба, видео

Печатать
Просмотров: 107
Where Did The Rock Go
By: 80'smetaladdict
In the key of A


INTRO (light distortion)
e----------------------------------3--3----------------|
b----------------3-3--3------------3--3-3-3--3---------|
g-----------2--2-2-2--2------------0--0-2-2--2---------|2x
d-------2-5-2--2---------------2-5-0--0----------------|
a-0-3-4-----0--0---------0-3-4-----x--x----------------|
E----------------------------------3--3----------------|

VERSE 1/CHORUS (medium distortion)

e----------------------------------3--3-2-2--2--|
b----------------3-3--3------------3--3-3-3--3--|
g-----------2--2-2-2--2------------0--0-2-2--2--|4x
d-------2-5-2--2---------------2-5-0--0---------|
a-0-3-4-----0--0---------0-3-4-----x--x---------|
E----------------------------------3--3---------|

on 4th time of verse 1/chorus
e-----------------------|
b----------------3-3--3-|
g-----------2--2-2-2--2-|
d-------2-5-2--2--------|
a-0-3-4-----0--0--------|
E-----------------------|

then do this
e-------------------|
b-------------------|
g-22222222----------|
d-22222222-22222222-|
a-00000000-22222222-|
E-------------------|

VERSE 2 (medium distortion)

e-----------------------------------------------|
b------------------3--3-------------------------|
g-----------2--2-2-2--2------------0--0-0-------|4x
d-------5-2-2--2-2-------------5-2-0--0-0-2--2--|
a-0-3-4-----0--0-0-------0-3-4-----x--x-x-2--2--|
E----------------------------------3--3-3-------|

on 4th time
e-----------------------|
b------------------3--3-|
g-----------2--2-2-2--2-|
d-------5-2-2--2-2------|
a-0-3-4-----0--0-0------|
E-----------------------|

then do this
e-------------------|
b-------------------|
g-22222222----------|
d-22222222-22222222-|
a-00000000-22222222-|
E-------------------|

SOLO (obviously distorted :] )

e-------------------------------------------------7-----------------=
b-15b17-15b16~~~\--9b11-----------------------------10-7------------=
g------------------9b11-9--7---7~-10b11-7-9~-------------9b10r-7----=
d----------------------------x--------------7--7~---------------9~\-=
a-------------------------------------------------------------------=
E-------------------------------------------------------------------=
                               
=--------------------------------------------------17---------------=
=15b17~-15b17~-16-14-----------15b16---20b22-20b22---20-17---17-----=
=-------------------16-14-----------16~-------------------19~--17---=
=------------------------16-14-----------------------------------19~=
=-------------------------------------------------------------------=
=-------------------------------------------------------------------=

=----------------------------------|
=----------------------------------|
=-4b5-2----------------------------|
=-------5~~~~~~~~~~~~-x<~~~~~~~~~~-|
=---------------------x<~~~~~~~~~~-|
=----------------------------------|
                               
CHORUS II (distorted)

e-------------------------------------3--------2--------3-------=
b----------3-----------------3--------3--------3--------3-------=
g-2--------2--------2--------2--------0--------2--------0-------=
d-2-----------------2-----------------0-----------------0-------=
a-0-----------------0-----------------x-----------------x-------=
E-------------------------------------3-----------------3-------=

e-2------------------------------------------------------22-2------|
b-3-----------------3-----------------3--------333-33333-33-3------|
g-2--------2--------2--------2--------2--------000-00000-22-2------|
d----------2-----------------2-----------------000-00000-----------|
a----------0-----------------0-----------------xxx-xxxxx-----------|
E----------------------------------------------333-33333-----------|


then go back and do only verse 1 4x
(just do the 1st staff of verse 1 then do the 2nd staff)
then head to the breakdown

BREAKDOWN (light distortion)

e----------------------------------------------------------------=
b---------------------------------------3-33-3-3--3--------------=
g-----------7--77-7-7-------------------2-22-2-2--2--------------=
d-2--22-2-2-----------5--55-5-5-------2----------------2--22-2-2-=
a-----------5--55-5-5-----------0-3-4----------------------------=
E-0--00-0-0-----------3--33-3-3------------------------0--00-0-0-=

=----------------------------3-33-3-3--3----|
=----------------------------3-33-3-3--3----|
=7--77-7-7-------------------0-00-0-0--0----|2x
=----------5--55-5-5-------2-0-00-0-0--0----|
=5--55-5-5-----------0-3-4---x-xx-x-x--x----|
=----------3--33-3-3---------3-33-3-3--3----|

INTERLUDE (distorted)

e------------------------------------------------7----------=
b--------------------------------------9b11-9b11--10-7-7----=
g-----------7b9-7b9-5~~-5~p0--------------------------9-7---=
d-------2-5------------------------2-5-------------------9~-=
a-0-3-4----------------------0-3-4--------------------------=
E-----------------------------------------------------------=

=----------------------------------------------17---------=
=-----------9b11------------20b22-20b22-20b22~---20p17----=
=-----------9b11-7~~\---------------------------------19~-=
=-------2-5-----------------------------------------------=
=-0-3-4---------------------------------------------------=
=---------------------------------------------------------=

=-------------------------12----------------------------------|
=-15b16-----------------12------------------------------------|
=-15b16----12-----14b15-----14~~~~~~~~-12------7h9~-9p7~-7~x\-|
=-------------14~-------------------------9~\-----------------|
=-------------------------------------------------------------|
=-------------------------------------------------------------|

OUTRO (light distortion)
    
e----------------------------------------------------------| 
b----------------------------------------------------------|
g-------------------2----------------0--0--222222222222222-|
d-------2-5~~-2--2--0----------2-5~~-0--0--222222222222222-|
a-0-3-4-------0--0-------0-3-4-------x--x--000000000000000-|
E------------------------------------3--3------------------|
PM_______                _______          <     rhythm    >
                                            cont. pattern
=-----------------------------------------------------------=
=-----------------------------------------------------------=
=-9-7----7\5-4-2-----------------------------------222222222=
=-----9~--------4-2--------------------x<~~~~~~~~~-222222222=
=------------------5-2-----------------x<~~~~~~~~~-000000000=
=----------------------3b=5~~~~~~~~~~~----------------------=

=---------------------------------------|
=--------------------3b5-3b5-3b5~~~~~---|
=2222222222222222---------------------2-|
=2222222222222222---------------------2-|
=0000000000000000---------------------0-|
=---------------------------------------|

Legend
b=bend
r=release
p=pull off
h=hammer on
x=scratch
(0)b=(0)=hold bend for a sec
x<~~~~~
x<~~~~~=pick scrape
/=slide up
\=slide down
PM=palm mute
(0)~x\=vibrato then scratch and slide down or up
(0)=optional note
Добавлено: 12.05.2012
Другие материалы по этой песне:
  • Аккорды и текст

Страница создана 12.05.2012
http://primanota.ru/crash/where-did-the-rock-go-fixed-sry-chords.htm
Привет, Гость.
Предлагаем пройти революционный курс по гитаре.
Подарок от PrimaNota.Ru, забирай!