PrimaNota.ru - самый крупный в мире бесплатный архив песенных текстов, аккордов, табулатур и нот


Crash - Take The Lead - таба, видео

Регистрация Запомнить меня
Войти через:  Facebook Google Twitter Vk Yandex Mail.ru

Crash - Take The Lead - таба, видео

Печатать
Просмотров: 133
Take The Lead
by: crash
Band: Blitz

INTRO

e----------------------------------------------------------|
b-8-8--8-8--8-8--------------------------------------------|
g-7-7--7-7--7-7----------------2-2-7-----------------------|
d-6-6--6-6--6-6-x<~~~~~~~~~~~--2-2-7-----------------------|
a-7-7--7-7--7-7-x<~~~~~~~~~~~--0-0-5-----------------------|
E----------------------------------------------------------|

VERSE

Both gtr.
e--------------3-3-------2-----|
b---3-3---3----3-3-------3-----|
g-2-2-2-2-2----0-0-------2-----|3x
d-2-0-0-2-0-2--0-0-------0-----|
a-0-0-0-0-0-2--x-x-------0-----|
E-----------0--3-3-3b4p0-------|

PRE-CHORUS (on 4th time of verse)

e--------------3------------|
b---3-3---3----3------------|
g-2-2-2-2-2----0---0h=2-----|
d-2-0-0-2-0-2--0---0h=2-----|
a-0-0-0-0-0-2--x---0--0-----|
E-----------0--3------------|

CHORUS

both gtr.
e---------------------------------------|
b-3--------3------3---------------------|
g-0-----2--2---2--2---7--7---5-5-----5\-|3x
d-0-----2--2---2--2---7--7---5-5-----5\-|
a-x-----0--0---0--0---5--5---3-3-3h5-3\-|
E-3-------------------------------------|

on 4th time

rhythm gtr.
e--------------------------------------|
b-3------------------------------------|
g-0--------2------2---7--7---5-5-----5-|
d-0-----2--2---2--2---7--7---5-5-----5-|
a-x-----2--0---2--0---5--5---3-3-3h5-3-|
E-3-----0------0-----------------------|

---------------------------------------------------|---------
-----------------------------------------8-8---8---|---8-8---
-----------------------------------------7-7---7---|---7-7---
---------------------------------------6-6-6-6-6-6-|-6-6-6-6-
---------------------------------------7-7-7-7-7-7-|-7-7-7-7-
---------------------------------------------------|---------

----|
-8\-|
-7\-|
-6\-|
-7\-|
----|

VERSE

Both gtr. 
e--------------3-3-------2-----|
b---3-3---3----3-3-------3-----|
g-2-2-2-2-2----0-0-------2-----|3x
d-2-0-0-2-0-2--0-0-------0-----|
a-0-0-0-0-0-2--x-x-------0-----|
E-----------0--3-3-3b4p0-------|

PRE-CHORUS (on 4th time of verse)
          ^
e--------------3----------|
b---3-3---3----3----------|
g-2-2-2-2-2----0-0h=2-----|
d-2-0-0-2-0-2--0-0h=2-----|
a-0-0-0-0-0-2--x-0--0-----|
E-----------0--3----------|

CHORUS

e-3-------------------------------------|
b-3--------3------3---------------------|
g-0-----2--2---2--2---7--7---5-5-----5\-|3x
d-0-----2--2---2--2---7--7---5-5-----5\-|
a-x-----0--0---0--0---5--5---3-3-3h5-3\-|
E-3-------------------------------------|

on 4th time
e----------------------------------------|
b-3--------3------3----------------------|
g-0-----2--2---2--2---7--7---5-5-----5---|
d-0-----2--2---2--2---7--7---5-5-----5---|
a-x-----0--0---0--0---5--5---3-3-3h5-3---|
E-3--------------------------------------|

BRIDGE

e-------------------------|
b----8-8---8-8----8-8---8-|
g----7-7---7-7----7-7---7-|
d-6--6-6-6-6-6-6--6-6-6-6-|
a-7--7-7-7-7-7-7--7-7-7-7-|
E-------------------------|

------------------------------------|
----8-8---8-8----8-8---8------------|
----7-7---7-7----7-7---7------------|
-6--6-6-6-6-6-6--6-6-6-6-x<~~~~~~~~-|
-7--7-7-7-7-7-7--7-7-7-7-x<~~~~~~~~-|
------------------------------------|

SOLO
                        ^                  
e-------------------------------------------------------------|
b-13b15-13b15~-------------------------------8b10-------------|
g--------------14-14p12----------7--9-7---9~------9~----------|
d-----------------------14--14~~-------x-x-----------9-7-9~~~-|
a-------------------------------------------------------------|
E-------------------------------------------------------------|

                  ^
|-------------------------------|
|-------------------6b8---------|
|-----------------5-----7-7~~~~-|
|-------5---7b9~~---------------|
|-7b9~~---5---------------------|
|-------------------------------|

|-------7-7--------------------------|
|-------7-7-10p7~--------------------|
|-9b10r-----------9b10---------------|
|----------------------7-9-7-9-------|
|------------------------------7b9~~-|
|------------------------------------|

|-------------------------------------------------------|
|-------------------/17-20b22-20b22-20b21-20-20b22~~~~~-|
|-------------------------------------------------------|
|------------7b9~~~-------------------------------------|
|-3-5---------------------------------------------------|
|-----3b5~~~--------------------------------------------|

OUTRO

e-3-------------------------------------|
b-3--------3------3---------------------|
g-0-----2--2---2--2---7--7---5-5-----5\-|3x
d-0-----2--2---2--2---7--7---5-5-----5\-|
a-x-----0--0---0--0---5--5---3-3-3h5-3\-|
E-3-------------------------------------|

on 4th time
e------------------------------------------------------
b-3--------3------3------------------------------------
g-0-----2--2---2--2---7--7---5-5-----55555555555555555-
d-0-----2--2---2--2---7--7---5-5-----55555555555555555-
a-x-----0--0---0--0---5--5---3-3-3h5-33333333333333333-
E-3----------------------------------------------------

------------------------------------|
---------------------------8-8---8\-|
555555555555555------------7-7---7\-|
555555555555555---------6--6-6-6-6\-|
333333333333333---------7--7-7-7-7\-|
------------------------------------|
Добавлено: 10.03.2012
Другие материалы по этой песне:
  • Аккорды и текст

Страница создана 10.03.2012
http://primanota.ru/crash/take-the-lead-chords.htm
Привет, Гость.
Предлагаем пройти революционный курс по гитаре.
Подарок от PrimaNota.Ru, забирай!