PrimaNota.ru - самый крупный в мире бесплатный архив песенных текстов, аккордов, табулатур и нот


Crash - Running Toward A Bullet - таба, видео

Регистрация Запомнить меня
Войти через:  Facebook Google Twitter Vk Yandex Mail.ru

Crash - Running Toward A Bullet - таба, видео

Печатать
Просмотров: 102
RUNNING TOWARD A BULLET
played in the key of: D
By: Crash

INTRO
   D        G5        A5   G D5
e------------------------------------|
b------8--------6----------3-3-------|
go-7-x-7-7~-5-x-5-5~--2-2--0-2------o|2x
do-7-x-7-7~-5-x-5-5~--2-2--0-0------o|
a---------------------0-0--x-0-------|
E--------------------------3---------|

VERSE
   D        G5        G     A5   D5  G     A5
e---------------------------------------------|
b------8--------6----------------3-3----------|
go-7-x-7-7~-5-x-5-5~--------2----2-2-------2-o|4x
do-7-x-7-7~-5-x-5-5~--5--5--2----0-0-------2-o|
a---------------------5--5--0----0-0-------0--|
E---------------------3--3-----------3b4p0----|

PRE-CHORUS
  G               G D
e----------------------------------------|
b----------------------------------------|
g-----------------0-2-2-2-2-2-2-2-2------|
d-5-5-5-5-5-5-5-5-0-4-4-4-4-4-4-4-4------|
a-5-5-5-5-5-5-5-5-0-5-5-5-5-5-5-5-5------|
E-3-3-3-3-3-3-3-3------------------------|

CHORUS
   D    C  A    G   D5
e---------------------------|
b---------------3-3-3-------|
go-7----5--2-2--0-0-2------o|3x
do-7----5--2-0--0-0-0------o|
a--5----3--0-0--x-x-0-------|
E---------------3-3---------|

then
  D      C  A    D5 G
|------------------------------|
|----------------3--3----------|
|-7------5--2-2--2--0----------|
|-7------5--2-0--0--0----------|
|-5------3--0-0--0--x----------|
|-------------------3----------|

REPEAT:

verse (2x)
pre-chorus
whole chorus

Then head to bridge

BRIDGE
   C      D5   A D5
e--------------------------------|
b---------3------3----3----3-----|
go-5--5-5-2----2-2--2-2--2-2----o|4x
do-5--5-5-0----2-0--2-0--2-0----o|
a--3--3-3-0----0-0--0-0--0-0-----|
E--------------------------------|

SOLO
                                 ^ ^                      ^  ^
e------------------------------------------------------------------=
b--------------------------------------------8b10r8-8b10~----------=
g----------7-----7-55----7-55----5-5-7b8r7~---------------7--5-----=
d----------7-5---7-55----7-55--------7b8r7~--------------------7p5-=
a------x-x----7~------7~------7~-----------------------------------=
E-3b5~-------------------------------------------------------------=

  ^        
=--------------------------------------------------------12--------------=
=--------------------15b16r15-15b16~-15b16r15-15b16--------15p12---15-12-=
=------------7-5~-----------------------------------14b15-------14~------=
=-5---------5------------------------------------------------------------=
=--5~--8-8-5-------------------------------------------------------------=
=------------------------------------------------------------------------=

                                ^^       ^ ^
=-------12---------------------------------------------------------------=
=-15b16---15-12--------------------------------5h8~--8---8---------------=
=--------------14b15r-12--------5-5~-7b8-7-5---------7b8-7b8--9~---------=
=-----------------------14~--5-7-7---7b8----7~-------------------10--12~-=
=------------------------------------------------------------------------=
=------------------------------------------------------------------------=

                                             ^  ^
=-----------------------------------------------------------------|
=----15b16-15b16~------------------15p12-----15-17-17~-20b21~~~~\-|
=-----------------12-----14p12h14~-------14~------x---------------|
=--------------------14~------------------------------------------|
=-----------------------------------------------------------------|
=-----------------------------------------------------------------|
=-----------------------------------------------------------------|

REPEAT:
Chorus (do the very end of the 1st staff every 2 times)
Verse (2x)

then do outro

OUTRO
  D           C           A5   G
e-----------------------------------=
b------8-----------6-----------3----=
g-7-x--7--7~~-5-x--5--5~~-2----0----=
d-7-x--7--7~~-5-x--5--5~~-2----0----=
a-------------------------0----x----=
E------------------------------3----=
  D5                  
=--------------------------|
=-33333333333333333------3-|
=-22222222222222222------2-|
=-00000000000000000------0-|
=-00000000000000000--------|
=--------------------------|

LEGEND
b=bend
r=release
h=hammer on
p=pull off
x=scratch
x<~=pick scrape up
x>~=pick scrape down
^=short note
*=pinch harmonic
~=vibrato
(0)=optional note

I think this song turned out, the solo came out killer if i might say so.
Let's see what you think :)
- Crash
Email me what ya think
g_g21@hotmail.com

Добавлено: 18.06.2012
Другие материалы по этой песне:
  • Аккорды и текст

Страница создана 18.06.2012
http://primanota.ru/crash/running-toward-a-bullet-chords.htm
Привет, Гость.
Предлагаем пройти революционный курс по гитаре.
Подарок от PrimaNota.Ru, забирай!