PrimaNota.ru - самый крупный в мире бесплатный архив песенных текстов, аккордов, табулатур и нот


Crash - Rock Will Never Die - таба, видео

Регистрация Запомнить меня
Войти через:  Facebook Google Twitter Vk Yandex Mail.ru

Crash - Rock Will Never Die - таба, видео

Печатать
Просмотров: 165
ROCK WILL NEVER DIE (new version)
By: 80'smetaladdict (A.K.A) Crash
played in the key of: E
Tuning: normal

INTRO

e-----------|------------------|
b-----------|------------------|
g----x-2-4--|--4-x-2-----------|
d-2--x-2-4--|--4-x-2--2--------|
a-2--x-0-2--|--2-x-0--2--------|
E-----------|------------------|

VERSE 1

e---------|------------|
b---------|------------|
g---x-2-4-|-4-x-2-4-xx-|8x
d-2-x-2-4-|-4-x-2-4-xx-|
a-2-x-0-2-|-2-x-0-2-xx-|
E---------|------------|

PRE-CHORUS (do this on 8th time of verse)

|-----------------------------------------------|
|-----------------------------------------------|
|---x-2-4--4--2---------------------------------|
|-2-x-2-4--4--2-2-2-2-2-2-2-2-2-2-2-2-2-2-2-2-2-|
|-2-x-0-2--2--0-2-2-2-2-2-2-2-2-2-2-2-2-2-2-2-2-|
|-----------------------------------------------|

CHORUS

e-------------------|----------------------|
b-------------------|----------------------|
g-4----2------4--2--|--4----2--------2-----|2x
d-4----2----2-2--2--|--4----2----2-2-22----|
a-2----0----2-2--0--|--2----0----2-2-02----|
E-------------------|----------------------|


then go back and play VERSE 1 again 8x

then after VERSE 1 play the PRE-CHORUS & the CHORUS again (4x)

BRIDGE

e-------------------------|---------------|
b-------------------------|---------------|
g-4--------4--------4-----|-5p4p2---------|3x
d-4--2-----4--2-----4--2--|-------4p0-----|
a-2--2-----2--2-----2--2--|-----------2~~-|
E-------------------------|---------------|

(on third time)
|-------------------------------------------|
|-------------------------------------------|
|-do the same thing but make the end longer-|
|-------------------------------------------|
|-------------------------------------------|
|-------------------------------------------|

SOlO
                                                                                         
                ^ ^  ^                        ^ ^         ^^
e---------------12--------------------------|----------------------------=
b-15b17-15b17~----15-12-------15------------|----------------------------=
g----------------------14b16~~--14b16~-12~--|--------9b11-7-7~-5b7-------=
d-------------------------------------------|-7-7-9~-------9-------5-5~~-=
a-------------------------------------------|----------------------------=
E-------------------------------------------|----------------------------=

             ^ ^                                  ^ ^
=-------------------7----------------|------------------------=
=-9b10---------------10p9p7----------|------------------------=
=-9b10-7~-9~---------------9p7~------|------------5-----------=
=------------7-9-7~-------------9~~~-|--------7b8---7-5-------=
=------------------------------------|-/5~~~~-----------7~~~~-=
=------------------------------------|------------------------=

=|---------------------------------------------------------17-=
=|-15b17-15~-15b17~-15p14p12------------------20b21-20b21~----=
=|----------------------------16-14~--------------------------=
=|-----------------------------------16~~~--------------------=
=|------------------------------------------------------------=
=|------------------------------------------------------------=

=-------------------------------|
=-20-17----17-20b21~------------|
=------19~----------------------|
=--------------------x<~~~~~~~~-|
=--------------------x<~~~~~~~~-|
=-------------------------------|

Both guitarists: chorus (2x)

BOTH GUITARISTS: do verse 1 (4x)

Then both guitars do the OUTRO as the 4th time

OUTRO (this on the 4th of both guitarists)
e---------------------------------------------------=
b---------------------------------------------------=
g---x-2-4--4-x-2-4-----------------4----4----4------=
d-2-x-2-4--4-x-2-4------x<~~~~~~~~-4----4----4------=
a-2-x-0-2--2-x-0-2------x<~~~~~~~~-2----2----2------=
E---------------------------------------------------=
                           s. ps

=--------------------------------------|
=--------------------------------------|
=-44444444444444444444444444444------4-|
=-44444444444444444444444444444------4-|
=-22222222222222222222222222222------2-|
=--------------------------------------|


LEGEND

b=bend
r=release
p=pull off
h=hammer on
x<~=pick scrape down
x>~=pick scrape up
~=vibrato
x=scratch
/=slide up
\=slide down
s. ps=slow pick scrape
^=short note
Добавлено: 29.02.2012
Другие материалы по этой песне:
  • Аккорды и текст

Страница создана 29.02.2012
http://primanota.ru/crash/rock-will-never-die-chords.htm
Привет, Гость.
Предлагаем пройти революционный курс по гитаре.
Подарок от PrimaNota.Ru, забирай!