PrimaNota.ru - самый крупный в мире бесплатный архив песенных текстов, аккордов, табулатур и нот


Crash - Permit To Rock - таба, видео

Регистрация Запомнить меня
Войти через:  Facebook Google Twitter Vk Yandex Mail.ru

Crash - Permit To Rock - таба, видео

Печатать
Просмотров: 123
Уроки эстрадного вокала в Санкт-Петербурге
Permit to Rock
By: Crash

INTRO

e------------------------------------|
b------------3-3---------------------|
g-2-2--------2-2-5--5----------------|
d-2-2-2-2-2--0-0-5--5----------------|
a-0-0-0-3-4--0-0-3--3----------------|
E------------------------------------|

VERSE

e-----------|--------------|
b-----------|-3-3----------|
g-2-2-------|-2-2-5--5-----|8x
d-2-2-2-2-2-|-0-0-5--5-----|
a-0-0-0-3-4-|-0-0-3--3-----|
E-----------|--------------|

on 8th time (Pre-Chorus)
e-----------|------------------------|
b-----------|-3-3--------------------|
g-2-2-------|-2-2-5------------------|
d-2-2-2-2-2-|-0-0-5------------------|
a-0-0-0-3-4-|-0-0-3------------------|
E-----------|------------------------|

CHORUS

e-----------3-----|-----------------------|
b-3---------3-----|-----------------------|
g-2--2------0---5-|-5-5--2--2--5-5--2--2--|4x
d-0--2--x-x-0---5-|-5-5--2--2--5-5--2--2--|
a-0--0--x-x-x---3-|-3-3--0--0--3-3--0--0--|
E-2---------3-----|-----------------------|


on 4th time        this part 2x
e-----------3---|-----------------------|
b-3---------3---|-----------------------|
g-2--2------0-5-|-5-5--2--2--5-5--2--2--|
d-0--2--x-x-0-5-|-5-5--2--2--5-5--2--2--|
a-0--0--x-x-x-3-|-3-3--0--0--3-3--0--0--|
E-2---------3---|-----------------------|

VERSE

e-----------|--------------|
b-----------|-3-3----------|
g-2-2-------|-2-2-5--5-----|4x
d-2-2-2-2-2-|-0-0-5--5-----|
a-0-0-0-3-4-|-0-0-3--3-----|
E-----------|--------------|

on 8th time (Pre-Chorus)
e-----------|------------------------|
b-----------|-3-3--------------------|
g-2-2-------|-2-2-5------------------|
d-2-2-2-2-2-|-0-0-5------------------|
a-0-0-0-3-4-|-0-0-3------------------|
E-----------|------------------------|

CHORUS

e-----------3-----|-----------------------|
b-3---------3-----|-----------------------|
g-2--2------0---5-|-5-5--2--2--5-5--2--2--|4x
d-0--2--x-x-0---5-|-5-5--2--2--5-5--2--2--|
a-0--0--x-x-x---3-|-3-3--0--0--3-3--0--0--|
E-2---------3-----|-----------------------|

BRIDGE

e--------------------|
b-8-8-7-----8-8-7-8~-|
g-7-7-7-----7-7-7-7~-|3x
d-------9~~----------|
a--------------------|
E--------------------|

then

e--------------------------|
b-8-8-7-----8-8-7----------|
g-7-7-7-----7-7-7----------|
d-------9~~-------x<~~~~~~-|
a-----------------x<~~~~~~-|
E--------------------------|

SOLO

e------------|-----------------5---------|-------------------------------
b-8-8-7----8-|-----5----8b10~~--8-5-5----|------------3b4~---------------
g-7-7-7----7-|-x---5---------------7-5---|-2~-2~-4~~-------4-2-----------
d-------9~---|--x----7~---------------7~-|---------------------4-2-4~----
a------------|---x-----------------------|----------------------------2~-
E------------|---------------------------|-------------------------------

|------------2-------------------------------|
|-------------5p2---/8b10~~-10-------13------|
|----------------4----------12b14~-x-15b17~~-|
|--------------------------------------------|
|--------------------------------------------|
|-/3~~~-2~~~---------------------------------|

BRIDGE 2

e-----------------------------|-----------------3--3-3------|
b-----------------------------|-----------------3--3-3------|
g-2-2-----2-2-----7--7-7--5---|-2-2-----2-2-----0--0-0--2---|1x
d-2-2-2-2-2-2-2-2-7--7-7--5---|-2-2-2-2-2-2-2-2-0--0-0--2---|
a-0-0-3-4-0-0-3-4-5--5-5--3---|-0-0-3-4-0-0-3-4-x--x-x--0---|
E-----------------------------|-----------------3--3-3------|

CHORUS

e-----------3-------|-----------------------|
b-3---------3-------|-----------------------|
g-2--2------0---5---|-5-5--2--2--5-5--2--2--|3x
d-0--2--x-x-0---5---|-5-5--2--2--5-5--2--2--|
a-0--0--x-x-x---3---|-3-3--0--0--3-3--0--0--|
E-2---------3-------|-----------------------|

on 4th time

e-----------3-------|
b-3---------3-------|
g-2--2------0---5---|2x
d-0--2--x-x-0---5---|
a-0--0--x-x-x---3---|
E-2---------3-------|

OUTRO

e-----------3-------|-----------------------|
b-3---------3-------|-----------------------|
g-2--2------0---5---|-5-5--2--2--5-5--2--2--|Repeat till fade
d-0--2--x-x-0---5---|-5-5--2--2--5-5--2--2--|
a-0--0--x-x-x---3---|-3-3--0--0--3-3--0--0--|
E-2---------3-------|-----------------------|
Добавлено: 03.04.2012
Другие материалы по этой песне:
  • Аккорды и текст

Страница создана 03.04.2012
http://primanota.ru/crash/permit-to-rock-chords.htm
Привет, Гость.
Предлагаем пройти революционный курс по гитаре.
Подарок от PrimaNota.Ru, забирай!