PrimaNota.ru - самый крупный в мире бесплатный архив песенных текстов, аккордов, табулатур и нот


Crash - Never Back Down - таба, видео

Регистрация Запомнить меня
Войти через:  Facebook Google Twitter Vk Yandex Mail.ru

Crash - Never Back Down - таба, видео

Печатать
Просмотров: 141
Never Back Down

INTRO

e-------------3--3-3-2--2------------------------|
b-1-1-1--1-1--3--3-3-3--3------------------------|
g-0-0-0--0-0--0--0-0-2--2------------------------|1x
d-3-3-2--3-2--0--0-0-0--0------------------------|
a-3-3-3--3-3--x--x-x-0--0------------------------|
E-------------3--3-3-----------------------------|

VERSE

e-------------3--3-3----------|
b-1-1-1--1-1--3--3-3-3-3------|
g-0-0-0--0-0--0--0-0-2-2------|4x
d-3-3-2--3-2--0--0-0-0-0------|
a-3-3-3--3-3--x--x-x-0-0------|
E-------------3--3-3----------|

PRE-CHORUS (on 4th time of verse)

e-------------3--3-3-----------------------------|
b-1-1-1--1-1--3--3-3-3-3-------------------------|
g-0-0-0--0-0--0--0-0-2-2-------------------------|
d-3-3-2--3-2--0--0-0-0-0-------------------------|
a-3-3-3--3-3--x--x-x-0-0-------------------------|
E-------------3--3-3-----------------------------|

CHORUS

e----------------------|
b--------------1-1--1--|
g--------------0-0--0--|4x
d-7-7-4~-------3-3--2--|
a-5-5-5~-------3-3--3--|
E--------3b4-0---------|

on 4th time

e------------------------------------------------|
b--------------1-1--1----------------------------|
g--------------0-0--0----------------------------|
d-7-7-4~-------3-3--2----------------------------|
a-5-5-5~-------3-3--3----------------------------|
E--------3b4-0-----------------------------------|

REPEAT:

VERSE 4x
PRE-CHORUS
CHORUS

BRIDGE (on 4th time of chorus)

e---------------------------------|
b----------------------1-1--------|
g----------------------0-0-0------|4x
d-7-7-4~-7-7-4~-7-7-4~-3-2-0------|(pick scrape at end of 4th time)
a-5-5-5~-5-5-5~-5-5-5~-3-3-x------|
E--------------------------3------|

SOLO

e---------------------------------------------------|-----------------|
b-8b10-8b10~~-------5-5---5-5---5-5-7b8~~~-x-8b10~~-|-/12-12b14~~-10~-|
g-------------7-5---5-5---5-5---5-5-----------------|-----------------|
d----------------7~-----7-----7---------------------|-----------------|
a---------------------------------------------------|-----------------|
E---------------------------------------------------|-----------------|

----------------------|-------------------------|------------------------|
----------------------|-------8b9-8~-9-7-9~~~---|-15b16-15b16~-----------|
-9--9p7---------------|-/9-7~--------9-7-9~~~---|--------------16-14-16~-|
--------9~-7-5-7~~~~\-|-------------------------|------------------------|
----------------------|-------------------------|------------------------|
----------------------|-------------------------|------------------------|

---------------------------------------------------|
------------/17-20b22-20-20b22-20b22~--------------|
---------------------------------------------------|
-16p14--------------------------------x<~~~~~~~~~~-|
-------16~~---------------------------x<~~~~~~~~~~-|
---------------------------------------------------|

REPEAT:

CHORUS 2x
VERSE 4x
CHORUS 2x

end of the 2nd time of chorus play outro

OUTRO

e-3---------------------------------------------------------------|
b-3---------------------------------------------------------------|
g-0-------------555555555555555555555555555555555555------------5-|
d-0-------------555555555555555555555555555555555555------------5-|
a-x-------------333333333333333333333333333333333333------------3-|
E-3---------------------------------------------------------------|
Добавлено: 12.05.2012
Другие материалы по этой песне:
  • Аккорды и текст

Страница создана 12.05.2012
http://primanota.ru/crash/never-back-down-chords.htm
Привет, Гость.
Предлагаем пройти революционный курс по гитаре.
Подарок от PrimaNota.Ru, забирай!