PrimaNota.ru - самый крупный в мире бесплатный архив песенных текстов, аккордов, табулатур и нот


Crash - Im Gonna Be A Rocker - таба, видео

Регистрация Запомнить меня
Войти через:  Facebook Google Twitter Vk Yandex Mail.ru

Crash - Im Gonna Be A Rocker - таба, видео

Печатать
Просмотров: 132
I'm Gonna Be A Rocker
By: Crash
Band: Blitz (my band)

INTRO

Rhythm
e-----------------------|-----------------------|
b-----------------------|-----------------------|
g-0h2-2-----------------|-0h2-2-----------------|
d-0h2-2-4-2-4---4-4-2-4-|-0h2-2-4-2-4---4-4-2-4-|
a-0-0-0-0-0-0-3-0-0-0-0-|-0-0-0-0-0-0-3-0-0-0-0-|
E-----------------------|-----------------------|

Lead
e-----------------------|-----------------------|
b-----------------------|-----------------------|
g-2---------------------|-2---------------------|
d-2---------------------|-2---------------------|
a-0---------------------|-0---------------------|
E-----------------------|-----------------------|

Rhythm
e-----------------------|-----------------------|
b-----------------------|-----------------------|
g-0h2-2-----------------|-0h2-2-----------------|
d-0h2-2-4-2-4---4-4-2-4-|-0h2-2-4-2-4---4-4-2-4-|
a-0-0-0-0-0-0-3-0-0-0-0-|-0-0-0-0-0-0-3-0-0-0-0-|
E-----------------------|-----------------------|

Lead
e----------------------|-------------------|
b----------------------|-------------------|
g-2-------2-------2----|-2----2---2--2-2-2-|
d-2-------2-------2----|-2----2---2--2-2-2-|
a-0-------0-------0----|-0----0---0--0-0-0-|
E----------------------|-------------------|

VERSE

Both Guitarists
e-----------------------|
b-----------------------|
g-0h2-2-----------------|6x
d-0h2-2-4-2-4---4-4-2-4-|
a-0-0-0-0-0-0-3-0-0-0-0-|
E-----------------------|

e-----------------------|
b-----------------------|
g-0h2-2-4-2-4---4-4-2-4-|2x
d-0-0-0-0-0-0-3-0-0-0-0-|
a-----------------------|
E-----------------------|

e-----------------------|
b-----------------------|
g-0h2-2-----------------|2x
d-0h2-2-4-2-4---4-4-2-4-|
a-0-0-0-0-0-0-3-0-0-0-0-|
E-----------------------|

e-----------------------|
b-----------------------|
g-----------------------|2x
d-0h2-2-----------------|
a-0h2-2-4-2-4---4-4-2-4-|
E-0-0-0-0-0-0-3-0-0-0-0-|

e-----------------------|
b-----------------------|
g-0h2-2-----------------|2x
d-0h2-2-4-2-4---4-4-2-4-|
a-0-0-0-0-0-0-3-0-0-0-0-|
E-----------------------|

CHORUS

Rhythm
e-3---3-3--3---3-|-------------------------|  |-2---2-2--3---3---------|
b-3---3-3--3---3-|-------------------------|  |-3---3-3--3---3---------|
g-0---0-0--0---0-|-4---4-4--2--4---4-4--2--|2x|-2---2-2--2---2-2---2-2-|
d-0---0-0--0---0-|-4---4-4--2--4---4-4--2--|  |----------------2---2-2-|
a-x---x-x--x---x-|-2---2-2--0--2---2-2--0--|  |----------------0---0-0-|
E-3---3-3--3---3-|-------------------------|  |------------------------|

-----|  |-3---3-3-----------------------------|
-3-3-|  |-3---3-3-----------------------------|
-2-2-|2x|-0---0-0-----------------------------|
-0-0-|  |-0---0-0--2--2-----------------------|
-----|  |-x---x-x--2--2-----------------------|
-----|  |-3---3-3-----------------------------|

Lead
e-3---3-3--3---3-|-------------------------|  |-2---2-2--3---3---------|
b-3---3-3--3---3-|-------------------------|  |-3---3-3--3---3---------|
g-0---0-0--0---0-|-4---4-4--2--4---4-4--2--|2x|-2---2-2--2---2-2---2-2-|
d-0---0-0--0---0-|-4---4-4--2--4---4-4--2--|  |----------------2---2-2-|
a-x---x-x--x---x-|-2---2-2--0--2---2-2--0--|  |----------------0---0-0-|
E-3---3-3--3---3-|-------------------------|  |------------------------|

Lead keeps going with that vibrato till the rhythm plays the verse 4x
-----|  |-3---3-3-----------------------------|
-3-3-|  |-3---3-3-----------------------------|
-2-2-|2x|-0---0-0-9~~-9~~~~~~~~~~~~~~~~~~~~~~-|
-0-0-|  |-0---0-0-----------------------------|
-----|  |-x---x-x-----------------------------|
-----|  |-3---3-3-----------------------------|

VERSE

Both Guitarists (lead comes in on 5th time
e-----------------------|
b-----------------------|
g-0h2-2-----------------|8x
d-0h2-2-4-2-4---4-4-2-4-|
a-0-0-0-0-0-0-3-0-0-0-0-|
E-----------------------|

e-----------------------|
b-----------------------|
g-0h2-2-4-2-4---4-4-2-4-|2x
d-0-0-0-0-0-0-3-0-0-0-0-|
a-----------------------|
E-----------------------|

e-----------------------|
b-----------------------|
g-0h2-2-----------------|2x
d-0h2-2-4-2-4---4-4-2-4-|
a-0-0-0-0-0-0-3-0-0-0-0-|
E-----------------------|

e-----------------------|
b-----------------------|
g-----------------------|2x
d-0h2-2-----------------|
a-0h2-2-4-2-4---4-4-2-4-|
E-0-0-0-0-0-0-3-0-0-0-0-|

e-----------------------|
b-----------------------|
g-0h2-2-----------------|2x
d-0h2-2-4-2-4---4-4-2-4-|
a-0-0-0-0-0-0-3-0-0-0-0-|
E-----------------------|

BRIDGE

e------------------------------|
b-8-8-7~-8-8-7~-8-8-7~-5-----5-|
g-7-7-7~-7-7-7~-7-7-7~-5-----5-|4x
d------------------------7b8---|
a------------------------------|
E------------------------------|

on the 4th time
e------------------------------|
b-8-8-7~-8-8-7~-8-8-7~~~~~~~~~-|
g-7-7-7~-7-7-7~-7-7-7~~~~~~~~~-|4x
d------------------------------|
a------------------------------|
E------------------------------|

SOLO

e--------------------------------------|----------|---------------------|
b-15b16-15b16~-15b16-------------------|-9b10-----|-8b10----------------|
g--------------------16p14-------------|-9b10-7---|------7~-9p7---------|
d--------------------------16-14-16~~~-|-------9~-|-------------9-7-9~~-|
a--------------------------------------|----------|---------------------|
E--------------------------------------|----------|---------------------|

-----------------------|-------------------------------|---------------|
-5---5----6b8---5~-5~--|-------------------------------|---------------|
--7---5-------7-5~-5~--|-----------------5------5---5~-|--9b10r=p7-----|
-------7~--------------|------x---7b8~~~---7b8r---5----|-----------9*~-|
-----------------------|-7b8~---x----------------------|---------------|
-----------------------|-------------------------------|---------------|

---------------------------------------|
-/17-20b21-20b21-20-20b21~-------------|
---------------------------------------|
---------------------------x<~~~~~~~~~-|
---------------------------x<~~~~~~~~~-|
---------------------------------------|

CHORUS (do this entire chorus 2x)

Rhythm
e-3---3-3--3---3-|-------------------------|  |-2---2-2--3---3---------|
b-3---3-3--3---3-|-------------------------|  |-3---3-3--3---3---------|
g-0---0-0--0---0-|-4---4-4--2--4---4-4--2--|2x|-2---2-2--2---2-2---2-2-|
d-0---0-0--0---0-|-4---4-4--2--4---4-4--2--|  |----------------2---2-2-|
a-x---x-x--x---x-|-2---2-2--0--2---2-2--0--|  |----------------0---0-0-|
E-3---3-3--3---3-|-------------------------|  |------------------------|

-----|  |-3---3-3-----------------------------|
-3-3-|  |-3---3-3-----------------------------|
-2-2-|2x|-0---0-0-----------------------------|
-0-0-|  |-0---0-0--2--2-----------------------|
-----|  |-x---x-x--2--2-----------------------|
-----|  |-3---3-3-----------------------------|

Lead
e-3---3-3--3---3-|-------------------------|  |-2---2-2--3---3---------|
b-3---3-3--3---3-|-------------------------|  |-3---3-3--3---3---------|
g-0---0-0--0---0-|-4---4-4--2--4---4-4--2--|2x|-2---2-2--2---2-2---2-2-|
d-0---0-0--0---0-|-4---4-4--2--4---4-4--2--|  |----------------2---2-2-|
a-x---x-x--x---x-|-2---2-2--0--2---2-2--0--|  |----------------0---0-0-|
E-3---3-3--3---3-|-------------------------|  |------------------------|

-----|  |-3---3-3-----------------------------|
-3-3-|  |-3---3-3-----------------------------|
-2-2-|2x|-0---0-0-9~~-9~~~~~~~~~~~~~~~~~~~~~~-|
-0-0-|  |-0---0-0-----------------------------|
-----|  |-x---x-x-----------------------------|
-----|  |-3---3-3-----------------------------|

OUTRO (on the end of the 2nd time the chorus is played, Leads part)

------3---3-3----------------------------------------------|
-3-3--3---3-3----------------------------------------------|
-2-2--0---0-0-9~~-9~~~~~~~~~-------------------------------|
-0-0--0---0-0----------------x<~~~~~~~~~~~~~~~~~~~~~~~~~~~-|
------x---x-x----------------x<~~~~~~~~~~~~~~~~~~~~~~~~~~~-|
------3---3-3----------------------------------------------|

------------------------|
------------------------|
-0h2-2---------------4\-|
-0h2-2-2-4-2---4-4-2-4\-|
-0-0-0-0-0-0-3-0-0-0-0--|
------------------------|
Добавлено: 07.04.2012
Другие материалы по этой песне:
  • Аккорды и текст

Страница создана 07.04.2012
http://primanota.ru/crash/im-gonna-be-a-rocker-chords.htm
Привет, Гость.
Предлагаем пройти революционный курс по гитаре.
Подарок от PrimaNota.Ru, забирай!