PrimaNota.ru - самый крупный в мире бесплатный архив песенных текстов, аккордов, табулатур и нот


Crash - I Just Need A Little Rnr Rock N Roll - таба, видео

Регистрация Запомнить меня
Войти через:  Facebook Google Twitter Vk Yandex Mail.ru

Crash - I Just Need A Little Rnr Rock N Roll - таба, видео

Печатать
Просмотров: 175
Song: I just need a little RNR (rock n roll)
played in the key of d,g,a,b,c# (c# i believe is on there)

this is a tab i made just today and it sounds pretty good i 
played it out then tabbed it and put it together but this is
my first tab 
 
{intro}
Rhythm
e-2---3--3-3---|-2---3--3----------------------------------|
b-3-2-3--3-3---|-3-2-3--3----------------------------------|
g-2-2-0--0-0-2-|-2-2-0--0-2--------------------------------|
D-----0--0-0-2-|-----0--0-2--------------------------------|
A-----0--0-0-0-|-----0--0-0--------------------------------|
E-----3--3-3---|-----3--3----------------------------------|
<------3x-----> this for the 4th

{verse}
rhythm
e------------|
b-3-2--------|
g-2-2-0--0-2-|8x
D-0---0--0-2-|
A-----x--x-0-|
E-----3--3---|

Lead (starts on 4th time)
e------------|
b------------|
g-7-7--------|4x
D-7-6-5--5-7-|
A-----5--5-7-|
E------------|

{chorus} both guitarists
e-----3----2-2----|-----3-2-2-----------------------|
b-----3----3-3----|-----3-3-3-----------------------|
g-4-4-0----2-2-2--|-4-4-0-2-2-2222222222222---------|
D-4-4-0--------2--|-4-4-0-----2222222222222---------|
A-2-2-0--------0--|-2-2-0-----0000000000000---------|
E-----3-----------|-----3---------------------------|
<------3x--------->        this for 4th

rhythm
e-2---3--3---|
b-3-2-3--3---|
g-2-2-0--0-2-|7x
D-----0--0-2-|
A-----0--0-0-|
E-----3--3---|

lead (starts on 3rd time)
e--------------|  |-----------------|
b--------------|  |-----------------|
g--------------|3x|-----------------|
D-7-6~\--------|  |-7-6~\-----------|
A-------5-5-7~-|  |-------5-5/7~~~~-|
E--------------|  |-----------------|
                      4th time

{chorus pt. II}
e-----3----2-2---|  |-------10---9--9-----|
b-----3----3-3---|  |-12-12-10---10-10-10-|
g-4-4-0----2-2-2-|4x|-11-11-0----9--9--10-|5x
D-4-4-0--------2-|  |-9--9--0-------------|
A-2-2-0--------0-|  |-------0-------------|
E-----3----------|  |-------10------------|

rhythm for solo
e-2----3-3---|
b-3-2--3-3---|repeat as much as necessary
g-2-2--0-0-2-|
D------0-0-2-|
A------0-0-0-|
E------3-3---|

{solo}
e-----------------------------------------------=
b------------------------------------10b--------=
g----------------------------------------12-9---=
D-7-6~\--------9b10r-7~-7-6~\----------------11~=
A-------5-5-7~----------------5-5/7~------------=
E-----------------------------------------------=

|---------------------------------------------------------=
|-11b12-11b12----------------3b4r-----------------6b7-6b7-=
|-11b12-11b12-9~--4b5r-4-2-2--------2~~-3-2-0---2---------=
|-------------------------4-------5-----------5-----------=
|---------------------------------------------------------=
|---------------------------------------------------------=

|-----------------------14--------------------------------=
|-------15b16-15b16~~~~---17-14-20b22~-17----20-----20----=
|-8-5~-----------------------------------19~-19b20--19b20-=
|---------------------------------------------------------=
|---------------------------------------------------------=
|---------------------------------------------------------=

|---------------|
|---------------|
|-17~-----------|
|----x<~~~~~~~~-|
|----x<~~~~~~~~-|
|---------------|

{verse 2}
rhythm
e-2---3--3----2---3--3--|  |--3-2---|
b-3-2-3--3----3-2-3--3--|  |--3-3---|
g-2-2-0--0-2--2-2-0--0-2|2x|4-0-2-2-|8x
D-----0--0-2------0--0-2|  |4-0---2-|
A-----0--0-0------0--0-0|  |2-0---0-|
E-----3--3--------3--3--|  |--3-----|

lead
e-----------------------|  |--------|
b-----------------------|  |--------|
g-----------------------|2x|----7---|8x
D-7-6~--------7-6~------|  |9-5-7-7-|
A-----5-5-7~------5-5-7~|  |9-5-5-7-|
E-----------------------|  |7-3-----|

then go to chorus pt. I and play the first section 4x 
then go to interlude

{interlude}

e-------------------------------------7----------=
b-----------------------3---10---10----10-7-7----=
g-4-0---9b10-9b11-9p7---2-2-9b10-9b10------9-7---=
D-4-0----------------7~-0-2-------------------9~-=
A-2-x---------------------0----------------------=
E---3--------------------------------------------=
                      slow b
e---------------------------------------17---------------|
b-----16~-16~-16p14-----------3---20b22~--20-17----------|
g-4-0--------------17-15~~~~~-2-2--------------19b20~~~--|
D-4-0-------------------------0-2----------------------\-|
A-2-x---------------------------0----------------------\-|
E---3----------------------------------------------------|

{outro}
e----------------------------------------------|
b----------------------------------------------|
g-7------------------------------------------2-|
D-7-----6~~~----5----------------------------2-|
A---------------5----5-7~~~~~~~~~~~~~~~~~~~~-0-|
E----------------------------------------------|
Добавлено: 10.04.2012
Другие материалы по этой песне:
  • Аккорды и текст

Страница создана 10.04.2012
http://primanota.ru/crash/i-just-need-a-little-rnr-rock-n-roll-chords.htm
Привет, Гость.
Предлагаем пройти революционный курс по гитаре.
Подарок от PrimaNota.Ru, забирай!