PrimaNota.ru - самый крупный в мире бесплатный архив песенных текстов, аккордов, табулатур и нот


Crash - Down In Dirty - таба, видео

Регистрация Запомнить меня
Войти через:  Facebook Google Twitter Vk Yandex Mail.ru

Crash - Down In Dirty - таба, видео

Печатать
Просмотров: 160
Down in Dirty
By: Crash
Band: Blitz

INTRO
rhythm guitarist
e-----2---2----------------|-----2---2---------------------------|
b-5-x-3---3----------------|-5-x-3---3---------------------------|
g-4-x-2-x-2--2---4---------|-4-x-2-x-2--2---4--------------------|
d-2-x-0-x-0--2---4-2--2-2--|-2-x-0-x-0--2---4-2--2-2-------------|
a-----0-x-0--0---2-2--2-2--|-----0-x-0--0---2-2--2-2-------------|
E------------------0--0-0--|------------------0--0-0-------------|

VERSE
both guitarists
e-----2---2----------------|-----2---2--------------|
b-5-x-3---3----------------|-5-x-3---3--------------|
g-4-x-2-x-2--2---4---------|-4-x-2-x-2--2--2-----2--|2x
d-2-x-0-x-0--2---4-2--2-2--|-2-x-0-x-0--2--2-----2--|
a-----0-x-0--0---2-2--2-2--|-----0-x-0--0--0-----0--|
E------------------0--0-0--|-----------------3b4----|

CHORUS

rhythm gtr.
  ^           ^                     ^           ^
e---------------------------------|---------------------------------|
b-3-----------3-------------------|-3-----------3-------------------|
g-2-----------0-------2--2-----2--|-2-----------0-------2--2-----2--|2x
d-0-----------0-------2--2-----2--|-0-----------0-------2--2-----2--|
a-0-----------x-------0--0-----0--|-0-----------x-------0--0-----0--|
E-2-----------3------------3b4----|-2-----------3------------3b4----|

lead gtr. (finger pick)                                 
e-9--9--9--9--7-7-7-7-10-10----10-|-9--9--9--9--7-7-7-7-------------|
b-10-10-10-10-8-8-8-8-10-10-8--10-|-10-10-10-10-8-8-8-8-------------|
g-9--9--9--9--7-7-7-7-7--7--7--7--|-9--9--9--9--7-7-7-7-2--2-----2--|2x
d---------------------------------|---------------------2--2-----2--|
a---------------------------------|---------------------0--0-----0--|
E---------------------------------|--------------------------3b4----|
                                                 (no finger picking here)
VERSE
both guitarists
e-----2---2----------------|-----2---2--------------|
b-5-x-3---3----------------|-5-x-3---3--------------|
g-4-x-2-x-2--2---4---------|-4-x-2-x-2--2--2-----2--|4x
d-2-x-0-x-0--2---4-2--2-2--|-2-x-0-x-0--2--2-----2--|
a-----0-x-0--0---2-2--2-2--|-----0-x-0--0--0-----0--|
E------------------0--0-0--|-----------------3b4----|

CHORUS

rhythm gtr.
  ^           ^                     ^           ^
e---------------------------------|---------------------------------|
b-3-----------3-------------------|-3-----------3-------------------|
g-2-----------0-------2--2-----2--|-2-----------0-------2--2-----2--|2x
d-0-----------0-------2--2-----2--|-0-----------0-------2--2-----2--|
a-0-----------x-------0--0-----0--|-0-----------x-------0--0-----0--|
E-2-----------3------------3b4----|-2-----------3------------3b4----|

lead gtr. (finger pick)                                 
e-9--9--9--9--7-7-7-7-10-10----10-|-9--9--9--9--7-7-7-7-------------|
b-10-10-10-10-8-8-8-8-10-10-8--10-|-10-10-10-10-8-8-8-8-------------|
g-9--9--9--9--7-7-7-7-7--7--7--7--|-9--9--9--9--7-7-7-7-2--2-----2--|2x
d---------------------------------|---------------------2--2-----2--|
a---------------------------------|---------------------0--0-----0--|
E---------------------------------|--------------------------3b4----|
                                                 (no finger picking here)

BRIDGE

Rhythm gtr.
e----------2----------2-3-3-----|----------2----------2-
b--------3-3--------3-3-3-3-----|--------3-3--------3-3-
g-2---2--0-2-2---2--0-2-0-0-2---|-2---2--0-2-2---2--0-2-
d-2---2--0-0-2---2--0-0-0-0-2---|-2---2--0-0-2---2--0-0-
a-0---0--x-0-0---0--x-0-x-x-0---|-0---0--x-0-0---0--x-0-
E--------3----------3---3-3-----|--------3----------3---

Lead gtr.
e-------------------------------|-----------------------
b-10--10p8-7-10--10p8-7-8-8-10~-|-10--10p8-7-10--10p8-7-
g-7---7====7-7---7====7-7-7-7~--|-7---7====7-7---7====7-
d-------------------------------|-----------------------
a-------------------------------|-----------------------
E-------------------------------|-----------------------

Rhythm gtr.
-3-3-----------------------------------------|
-3-3-----------------------------------------|
-0-0-2---------------------------------------|
-0-0-2---------------------------------------|
-x-x-0---------------------------------------|
-3-3-----------------------------------------|

Lead gtr.
---------------------------------------------|
-8-8-10-10b12-10-10b12-10-10b12r\------------|
-7-7-----------------------------------------|
----------------------------------x<~~~~~~~~-|
----------------------------------x<~~~~~~~~-|
---------------------------------------------|

SOLO

rhythm gtr.
  ^           ^                     ^           ^
e---------------------------------|---------------------------------|
b-3-----------3-------------------|-3-----------3-------------------|
g-2-----------0-------2--2-----2--|-2-----------0-------2--2-----2--|
d-0-----------0-------2--2-----2--|-0-----------0-------2--2-----2--|
a-0-----------x-------0--0-----0--|-0-----------x-------0--0-----0--|
E-2-----------3------------3b4----|-2-----------3------------3b4----|

Lead gtr.               
e------2-----------------|-3-------------------------------------------
b-3b4~--5-2--------------|--3-6~---------------------------------------
g----------4-5p2---------|-------5-------------x-----5-5-7~------------
d----------------4-2-4~~-|--------7-5-7---------x-7~--5-----x<~~~~~~~~-
a------------------------|--------------7-5-7~--------------x<~~~~~~~~-
E------------------------|---------------------------------------------

rhythm gtr.
  ^           ^                     ^           ^
e---------------------------------|---------------------------------|
b-3-----------3-------------------|-3-----------3-------------------|
g-2-----------0-------2--2-----2--|-2-----------0-------2--2-----2--|
d-0-----------0-------2--2-----2--|-0-----------0-------2--2-----2--|
a-0-----------x-------0--0-----0--|-0-----------x-------0--0-----0--|
E-2-----------3------------3b4----|-2-----------3------------3b4----|

Lead gtr.
------------------|----------------------------------------------------
-13b14-13b14-13b14|----------------15----------------20b21-20b21-20-17-
------------------|-15-12----------14b16=pb16r14-12~-------------------
------------------|------14-12-----------------------------------------
------------------|-----------14~--------------------------------------
------------------|----------------------------------------------------

rhythm gtr.
  ^           ^                     ^           ^
e---------------------------------|---------------------------------|
b-3-----------3-------------------|-3-----------3-------------------|
g-2-----------0-------2--2-----2--|-2-----------0-------2--2-----2--|
d-0-----------0-------2--2-----2--|-0-----------0-------2--2-----2--|
a-0-----------x-------0--0-----0--|-0-----------x-------0--0-----0--|
E-2-----------3------------3b4----|-2-----------3------------3b4----|

Lead gtr.
--------|----------------------------------------------------------------
20b21~~-|-19b20-pb20r19-------------20----202020202020202020202020202020-
--------|---------------19-17-19~~~-19b21-191919191919191919191919191919-
--------|----------------------------------------------------------------
--------|----------------------------------------------------------------
--------|----------------------------------------------------------------

rhythm gtr.
  ^           ^                     ^           ^
e---------------------------------|---------------------------------|
b-3-----------3-------------------|-3-----------3-------------------|
g-2-----------0-------2--2-----2--|-2-----------0-------2--2-----2--|
d-0-----------0-------2--2-----2--|-0-----------0-------2--2-----2--|
a-0-----------x-------0--0-----0--|-0-----------x-------0--0-----0--|
E-2-----------3------------3b4----|-2-----------3------------3b4----|

---------------------------5-----------------------------------------------|
20202020202020\---/8-8b10~--8-5-7--------3b4-------------------------------|
19191919191919\----------------7-7-7---------4-2-4~------------------------|
----------------------------------5-7---------------4-2-4--------x<~~~~~~~-|
-------------------------------------5~------------------2-------x<~~~~~~~-|
-----------------------------------------------------------3b5~~-----------|

OUTRO
both guitarists
e-----2---2----------------|-----2---2--------------|
b-5-x-3---3----------------|-5-x-3---3--------------|
g-4-x-2-x-2--2---4---------|-4-x-2-x-2--2--2-----2--|4x
d-2-x-0-x-0--2---4-2--2-2--|-2-x-0-x-0--2--2-----2--|
a-----0-x-0--0---2-2--2-2--|-----0-x-0--0--0-----0--|
E------------------0--0-0--|-----------------3b4----|

on 4th time

e-----2-----2--------3------------------|
b-5-x-3-----3--------3------------------|
g-4-x-2-----2---2-2--0----------------2-|
d-2-x-0-----0---2-2--0--2-------------2-|
a-----0-----0---0-0--x--2-------------0-|
E--------------------3--0---------------|
Добавлено: 17.03.2012
Другие материалы по этой песне:
  • Аккорды и текст

Страница создана 17.03.2012
http://primanota.ru/crash/down-in-dirty-chords.htm
Привет, Гость.
Предлагаем пройти революционный курс по гитаре.
Подарок от PrimaNota.Ru, забирай!