PrimaNota.ru - самый крупный в мире бесплатный архив песенных текстов, аккордов, табулатур и нот


Crash Romeo - Die In Your Arms - текст песни, таба, видео

Регистрация Запомнить меня
Войти через:  Facebook Google Twitter Vk Yandex Mail.ru

Crash Romeo - Die In Your Arms - текст песни, таба, видео

Печатать
Просмотров: 194
TheFearlessChicken@Gmail.com

Intro:

Standard tuning:
E-A-D-G-B-E

E:---0---------0----0-------0-----0-----0----|
B:----0---------0------------0-----0---------|
G:-------------------------------------------|
D:----------------------2-2------------------|
A:4-4------2-2-----2-----------2-2---2-------|
E:-------------------------------------------|

That repeats the whole intro.

Then:

E:----------7-------------------------------|
B:--4-5-4-5---4-5-4-5-----------------------|
G:--------------------4---------------------|
D:------------------------------------------|
A:------------------------------------------|
E:------------------------------------------|  x6

E:------------------------------------------|
B:------4--5----7--5--4--5------------------|
G:--4---------------------------------------|
D:------------------------------------------|
A:------------------------------------------|
E:------------------------------------------|


Then the verse.
Добавлено: 06.04.2012
Другие материалы по этой песне:
  • Аккорды и текст

Страница создана 06.04.2012
http://primanota.ru/crash-romeo/die-in-your-arms-chords.htm
Привет, Гость.
Предлагаем пройти революционный курс по гитаре.
Подарок от PrimaNota.Ru, забирай!