PrimaNota.ru - самый крупный в мире бесплатный архив песенных текстов, аккордов, табулатур и нот


Crash Romeo - Dial M For Murder - аккорды и текст, видео

Регистрация Запомнить меня
Войти через:  Facebook Google Twitter Vk Yandex Mail.ru

Crash Romeo - Dial M For Murder - аккорды и текст, видео

Печатать
Просмотров: 164
Уроки эстрадного вокала в Санкт-Петербурге
Dial M For Murder
Crash Romeo
Crash Romeo
Dial M For Murder
2006
Submitted by: paramore_fans@yahoo.com

Key: E

Tuning: Standard EADGBe

Chords used:
E -   022100
B -   x24442
C#m - x46654
A -   x02220
F#m - 244222


Intro: A--B--C#m---B (x3) A--B--

Guitar 2:
E|-2-0-0-0-5-0-0-2-2-0-0-0-5-0-4--|
B|-----------------------------------------|
G|-----------------------------------------|
D|-----------------------------------------| Repeat many times
A|-----------------------------------------|
E|-----------------------------------------|


Verse 1:
C#m              B               A             C#m
  I cant sleep tonight, smell of cigarettes on sheets
             B            A              C#m
why wont you just get the hell out of my dreams
              B                   A
well ive been knocked down for so long
           B               A(hold)
& ive been driving on this road for days


Chorus:
E            F#m                  C#m
  you say anything wont break you down
                                 B
some will capture your heart and sound
                                    A
well you say anything wont break you down
      B
& ill never fall in love again


Verse 2:
C#m            B
  silence wont last
         A             C#m
i got my finger on the trigger
          B                    A(hold)
i hoped & prayed my hand will slip
A                 C#m     B          A
  when you left me, i was holding my breath
now that youre gone
C#m            B       A
  my lungs can finally rest
A                 C#m     B          A
  when you left me, i was holding my breath
now that youre gone
C#m            B       A
  my lungs can finally rest


(Repeat Chorus)


Interlude: E--C#m--B--A--B

Guitar 2:
e|-----7---|-----4h5-7-4-|-----7---|-7p5-4-------|----------------7-|
B|-5-5---5-|-5h7---------|-5-5---5-|--------7--5-|-7-7-7-7-4-4--5---|
G|---------|-------------|---------|-------------|------------------|
D|---------|-------------|---------|-------------|------------------|
A|---------|-------------|---------|-------------|------------------|
E|---------|-------------|---------|-------------|------------------|
     x3                      x3
then
e|---|-11h12p11-----------------12----------------9h12-7p5-4-2-0-|
B|-5-|----------10h12p10-9h10p9----12-9------12p9----------------|
G|---|----------------------------------9h11---------------------|
D|---|-----------------------------------------------------------|
A|---|-----------------------------------------------------------|
E|---|-----------------------------------------------------------|
                           Very fast!!!


Bridge:
E
  i dont wanna bring you back from the dead
                              C#m
this song is killing me right now
i dont wanna bring you back from the dead
                            B
my heart is burried too far down
i dont wanna i dont wanna
                      A(hold)
i dont wanna bring you down
E
  i dont wanna bring you back from the dead
                              C#m
this song is killing me right now
i dont wanna bring you back from the dead
                            B
my heart is burried too far down
i dont wanna i dont wanna
                      A
i dont wanna bring you down
      B
& ill never fall in love again
(Repeat x3)
(Repeat intro)
Добавлено: 22.03.2012
Другие материалы по этой песне:
  • Аккорды и текст

Страница создана 13.03.2012
http://primanota.ru/crash-romeo/dial-m-for-murder-chords.htm
Привет, Гость.
Предлагаем пройти революционный курс по гитаре.
Подарок от PrimaNota.Ru, забирай!