PrimaNota.ru - самый крупный в мире бесплатный архив песенных текстов, аккордов, табулатур и нот


Cramps - Eyeball In My Martini - бас-таба, видео

Регистрация Запомнить меня
Войти через:  Facebook Google Twitter Vk Yandex Mail.ru

Cramps - Eyeball In My Martini - бас-таба, видео

Печатать
Просмотров: 68
Уроки эстрадного вокала в Санкт-Петербурге
Salutations!
I am Phanny Bandito, bassist and pianist out of San Antonio, Texas, no one special.

As of late , I have found a love for the cramps!
I am fully aware that the band uses 2 dueling guitars as opposed to a bass.
Unfortunately, i do not own a good enough guitar to use at the moment,
soo i thought I'd  write my own tabs but for any bassist (or other instrumentalist, etc, 
etc) to use, alter, or what have you.
these may not be perfect but i believe that they have a good enough foundation.
Soo enjoy, take what you can learn and apply how you see fit!
       this is technically the WHOLE song in a nutshell!
       much love,
                 -Phanny Bandito

-------------------------------------------------------------------------------
                             Eyeballs in my Martini - The Cramps
-------------------------------------------------------------------------------
Tabbed by: phannybandito
If you have any questions or suggestions please leave them in the comments!
I would love to get some feed back on how I did or where I can improve!

Tuning: standard



| /  slide up
| \  slide down
| h  hammer-on
| p  pull-off
| ~  vibrato
| +  harmonic
| x  Mute note

(0:00- 0:09)

G|------------------------------------|   intro: 2x one after the other
D|------------------------------------|
A|-------3p-0------3-6-530------------|
E|-----5------3--5--------------------|
              ^---you may pull down on this one if you'd like.
   **** also, when you pull off of that 3p(aka B# or Cflat{what have you})
         you need to catch that 0 (open A) with your fingers or your
           pick. In other words, it really is more of a bend and then
             you hit an open A right after you bend the B#! it just feels
               like a pull off
                (I don't write tabs out often soo
                  please bear with me, turtle doves)



please don't follow my tabs like a robot *beep boop*
they are ment to guide you soo follow your natural rhythm whilst reading these tabs.
****** prior comment about the 3p applies here as well

(0:10-0:16)
G|------------------------------------|
D|------------------------------------|
A|-------3p-0------3-6-530------------|
E|-----5------3--5--------------------|

G|------------------------------------|
D|------------------------------------|
A|-------3p-0------3-6-530--/5-5555---|
E|-----5------3--5--------------------|

(0:17-0:24)
G|------------------------------------|
D|-------3p-0------3-6-530------------|
A|-----5------3--5--------------------|
E|------------------------------------|

G|------------------------------------|
D|------------------------------------|
A|-------3p-0------3-6-530--/5-5555---|
E|-----5------3--5--------------------|

(0:25-0:32)
G|-------------------------------------|
D|-------------------------------------|
A|----5(hit it 8 times)-77-55-7777-----|
E|-------------------------------------|

G|-------------------------------------|
D|-------------------------------------|
A|----7(hit it 8 times)-99-77-9999-----|
E|-------------------------------------|



The rest of the song is pretty much just that!!
except with the exception of a couple of changes in the order, towards the end of the 
song, but it's nothing you can't catch on to!
I hope this helped someone out!
till next time, friends!

P.s. sorry for any errors in my grammars :3
Добавлено: 31.05.2016
Другие материалы по этой песне:
  • Аккорды и текст

Страница создана 31.05.2016
http://primanota.ru/cramps/eyeball-in-my-martini-chords.htm
Привет, Гость.
Предлагаем пройти революционный курс по гитаре.
Подарок от PrimaNota.Ru, забирай!