PrimaNota.ru - самый крупный в мире бесплатный архив песенных текстов, аккордов, табулатур и нот


Craigs Brother - Potential - текст песни, таба, видео

Регистрация Запомнить меня
Войти через:  Facebook Google Twitter Vk Yandex Mail.ru

Craigs Brother - Potential - текст песни, таба, видео

Печатать
Просмотров: 163
Уроки эстрадного вокала в Санкт-Петербурге
Potential - Craig's Brother
tabber - shonofear


Tuning: D#

Intro
 Gtr 1
-|-------------------------------------------------------------------------------|
-|-------------------------------------------------------------------------------|
-|-------------------------------------------------------------------------------|
-|-----------------------------------------------------------------------------5-|
-|-----------------------------------------------------------------------------5-|
-|-----------------------------------------------------------------------------3-|

 Gtr 2 (Lots of treble)
-|----------------------------------------|--------------------------------------|
-|----------------------------------------|--------------------------------------|
-|----------------------------------------|--------------------------------------|
-|-5-8--5-8----------------------5-8------|-5-8--5-8----------------------5-8--5-|
-|-3----2----7-8--5-8--3-8--5-8--3----5-8-|-3----2----7-8--5-8--3-8--5-8--3----5-|
-|-*----*----5----3----1----3----*----3---|-*----*----5----3----1----3----*----3-|
             *    *    *    *         *               *    *    *    *          
                                                                              
Verse 1
 Gtr 1
-|--------------------------------------------------------------|
-|--------------------------------------------------------------|
-|-5-555-555-555--------------------------------------1717-1616-|
-|-5-555-555-555--7-777-777-777--3-333-333-333--5-555-----------|
-|-3-333-333-333--7-777-777-777--3-333-333-333--5-555-1515-1414-|
-|----------------5-555-555-555--1-111-111-111--3-333-----------|
                                                                            
 Gtr 2
-|-------------------------------------------------------------|
-|-------------------------------------------------------------|
-|-5-555-555-555---------------------------------------999-777-|
-|-5-555-555-555--7-777-777-777--3-333-333-333--5-555----------|
-|-3-333-333-333--7-777-777-777--3-333-333-333--5-555-/777-555-|
-|----------------5-555-555-555--1-111-111-111--3-333----------|
                                                                               
 Gtr 1
-|----------------------------------------------------------------------5-7-|
-|------------------------------------------------------------------5-8-*-*-|
-|-5-555-555-555--------------------------------------------0-4-5-7-*-*-----|
-|-5-555-555-555--7-777-777-777--3-333-333-333--5--------5--*-*-*-*---------|
-|-3-333-333-333--7-777-777-777--3-333-333-333--5-555555-5------------------|
-|----------------5-555-555-555--1-111-111-111--3-333333-3------------------|
                                                  ******
 Gtr 2 
-|---------------------------------------------------------|
-|---------------------------------------------------------|
-|-5-555-555-555-------------------------------------------|
-|-5-555-555-555--7-777-777-777--3-333-333-333--5--------5-|
-|-3-333-333-333--7-777-777-777--3-333-333-333--5-555555-5-|
-|----------------5-555-555-555--1-111-111-111--3-333333-3-|
                                                  ******










Chorus 1
 Gtr 1
-|---------------------------------------|
-|---------------------------------------|
-|---------------------------------17-16-|
-|-7--------5--------3-------------------|
-|-7-777777-5-555555-3-3333333333--15-14-|
-|-5-555555-3-333333-1-1111111111--------|
     ******   ******   **********                                               
 Gtr 2
-|-------------------------------------|
-|-------------------------------------|
-|---------------------------------9-7-|
-|-7--------5--------3-----------------|
-|-7-777777-5-555555-3-3333333333--7-5-|
-|-5-555555-3-333333-1-1111111111------|
     ******   ******   **********                                              
 Gtr 1
-|-------------------------------------|
-|-------------------------------------|
-|-------------------------------------|
-|-7--------5--------3----------333333-|
-|-7-777777-5-555555-3-33333333-333333-|
-|-5-555555-3-333333-1-11111111-111111-|
     ******   ******   ********                                             
 Gtr 2
-|--------------------------------3-------|
-|----------------------------3h5---5b6r5-|
-|----------------------------------------|
-|-7--------5--------3--------------------|
-|-7-777777-5-555555-3-333333-------------|
-|-5-555555-3-333333-1-111111-------------|
     ******   ******   ******                                                
 Gtr 1
-|----------------|--------------------------|
-|----------------|--------------------------|
-|----------------|------12------------------|
-|-7----5----3----|-7------r--3-------3----5-|
-|-7-8--5-8--3-12-|-7-r--10---3-3-12--3-6--5-|
-|-5----3----1----|-5---------1-1-----1----3-|
                                *                                    
 Gtr 2
-|----------------|--------------------------|
-|----------------|--------------------------|
-|----------------|------12------------------|
-|-7----5----3----|-7------r--3-------3----5-|
-|-7-8--5-8--3-12-|-7-r--10---3-3-12--3-6--5-|
-|-5----3----1----|-5---------1-1-----1----3-|
                                *  
Pre Verse 2
 Gtr 1
-|-------------------|
-|-------------------|
-|-5-555-5-----------|
-|-5-555-5-----------|
-|-3-333-3--55555555-|
-|----------33333333-|
            ********  
 Gtr 2
-|--------------------|
-|------------------5-|
-|-5-555-5--000-5-7---|
-|-5-555-5------------|
-|-3-333-3------------|
-|--------------------|   

                                       
Verse 2
 Gtr 1 
-|-------------------------------------------------------------------|
-|----------------------------------------------------/5-3---6-5-3---|
-|-5-555-555-555-------------------------------------------5-------5-|
-|-5-555-555-555--7-777-777-777--3-333-333-333--5-555----------------|
-|-3-333-333-333--7-777-777-777--3-333-333-333--5-555----------------|
-|----------------5-555-555-555--1-111-111-111--3-333----------------|
                                                                            
 Gtr 2
-|-------------------------------------------------------------------|
-|-------------------------------------------------------------------|
-|-5-555-555-555--------------------------------------/5-4---7-5-4---|
-|-5-555-555-555--7-777-777-777--3-333-333-333--5-555------5-------5-|
-|-3-333-333-333--7-777-777-777--3-333-333-333--5-555----------------|
-|----------------5-555-555-555--1-111-111-111--3-333----------------|
                                                                         
 Both Gtrís
-|----------------------------------------------------------------|
-|----------------------------------------------------------------|
-|-5-555-555-555--------------------------------------------------|
-|-5-555-555-555--7-777-777-777--3-333-333-333--5--------5------5-|
-|-3-333-333-333--7-777-777-777--3-333-333-333--5-555555-5-5555-5-|
-|----------------5-555-555-555--1-111-111-111--3-333333-3-3333-3-|
                                                  ******   ****             
Bridge
 Gtr 1
-|------------------------------------------------------------------------------|
-|------------------------------------------------------------------------------|
-|-------------------------------99-9--10---------------------5-----------------|
-|-3---------------7--------1010-99-9--10-101010101010--------5-555555----------|
-|-3-333333-555555-7-777777-1010-77-7---8--8-8-8-8-8-8-555555-3-333333-555-5555-|
-|-1-111111-333333-5-555555--8-8-----------*-*-*-*-*-*-333333---******-333-3333-|
     ****** ******   ******                            ******          *** **** 
 Gtr 2
-|------------------------------------------------------------------------------|
-|------------------------------------------------------------------------------|
-|-------------------------------99-9--10---------------------5-----------------|
-|-3------------------------1010-99-9--10-101010101010--------5-555555----------|
-|-3------------------------1010-77-7---8--8-8-8-8-8-8-555555-3-333333-55555555-|
-|-1-------------------------8-8-----------*-*-*-*-*-*-333333---******-33333333-|
                                                       ******          ********  
 Both Gtrís
-|---------------------------------------------------------------------------|
-|---------------------------------------------------------------------------|
-|---------------------------------99-9--10----------------------------------|
-|-3--------5--------7--------1010-99-9--10-10-12--5-------------------------|
-|-3-333333-5-555555-7-777777-1010-77-7---8--8-----5-555555-5-555-555-555555-|
-|-1-111111-3-333333-5-555555--8-8-----------*-----3-333333-3-333-333-333333-|
     ******   ******   ******                        ****** * *** *** ******
Solo
 Gtr 1
-|---------------------------------------------------------7-7/8--------|
-|-----8-----8/10-----8-------------------------------8-10-------10-8-8-|
-|-7h9---7h9------7-9---7b8r7---------------------7-9-------------------|
-|----------------------------10--9-10-9-----7-10-----------------------|
-|---------------------------------------10-----------------------------|
-|----------------------------------------------------------------------|
                                                                         
-|-----------------------------------------------------------------------5/8-|
-|-----8---------------------------------------------------------------------|
-|-7-9-------7-9-7----7-10-9-7-9-7-\-----------------------------------------|
-|-----------------10--------------------------------------------------------|
-|--------10--------------------------3333-/7777-------------------3h5/7-----|
-|-----------------------------------------------10-8--7-8-7-3--h5-----------|
                                                                
         
-|--------88-8--------88-8--10b12r10--8----------------------------|
-|-8h10p8------8h10p8-------------------8b10r8--8------------------|
-|------------------------------------------------7-7b8r7--7-------|
-|-----------------------------------------------------------9-r-\-|
-|-----------------------------------------------------------------|
-|-----------------------------------------------------------------|
                                                                            
 Gtr 2
-|------------------------|---------------------------------|
-|------------------------|---------------------------------|
-|-5----------------------|-5-------------------------------|
-|-5-12--7-----3-----5----|-5-12--7-----3-----55-555-555-55-|
-|-3-----7-12--3-12--5-12-|-3-----7-12--3-12--55-555-555-55-|
-|-------5-----1-----3----|-------5-----1-----33-333-333-33-|
                                                                              
Chorus 2
 Gtr 1
-|---------------------------------------|
-|---------------------------------------|
-|-----------------------------9-7-5-44\-|
-|-7--------5--------3-------------------|
-|-7-777777-5-555555-3-333333------------|
-|-5-555555-3-333333-1-111111------------|
     ******   ******   ******                                              
 Gtr 2
-|--------------------------------------------|
-|--------------------------------------------|
-|--------------------------------------------|
-|-7--------5--------3------------------------|
-|-7-777777-5-555555-3-333333-/7--------------|
-|-5-555555-3-333333-1-111111----10-8-7-7h8p7-|
     ******   ******   ******                                              
 Gtr 1
-|-------------------------------------|
-|-------------------------------------|
-|-------------------------------------|
-|-7--------5--------3----------333333-|
-|-7-777777-5-555555-3-33333333-333333-|
-|-5-555555-3-333333-1-11111111-111111-|
     ******   ******   ********                                             
 Gtr 2
-|--------------------------------3-------|
-|----------------------------3h5---5b6r5-|
-|----------------------------------------|
-|-7--------5--------3--------------------|
-|-7-777777-5-555555-3-333333-------------|
-|-5-555555-3-333333-1-111111-------------|
     ******   ******   ******                                                
 Gtr 1
-|---------------|------------------------------------------------------|
-|---------------|------------------------------------------------------|
-|---------------|-17-16-16--16-14-14--14-12---14---16------------------|
-|-7----5----3---|-------------------------------r----r--3-------3----5-|
-|-7-8--5-8--3-6-|-15\14-14--14\12-12--12\10---12---14---3-3-12--3-6--5-|
-|-5----3----1---|---------------------------------------1-1-----1----3-|
                                                           *                  
 Gtr 2
-|---------------|----------------------------------------------|
-|---------------|----------------------------------------------|
-|---------------|-9-7-7--7-5-5--5-4----------------------------|
-|-7----5----3---|---------------------7----5----3-------3----5-|
-|-7-8--5-8--3-6-|-7\5-5--5\3-3--3\2---7-r--5-r--3-3-12--3-6--5-|
-|-5----3----1---|---------------------5----3----1-1-----1----3-|
                                                   *



Outro                                                                                       
 Gtr 1
-|--------------------|
-|--------------------|
-|-5------------------|
-|-5-r--7----3----5---|
-|-3----7-r--3-r--5-r-|
-|------5----1----3---|

-|---------------------------------------------------------|
-|---------------------------------------------------------|                                      
-|-5----9-7-7-5--5----9-7-7-5--5---10-9-9-7--7---7-5-5-4-5-|
-|-5-r------------r-------------r-------------r------------|
-|-3---/7\5-5\3--3---/7\5-5\3--3---/8\7-7\5--5---5\3-3\2/3-|
-|---------------------------------------------------------|

-|----------------------------------------------------------------------------|
-|----------------------------------------------------------------------------|
-|-5---9-7-7-5--5----9-7-7-5--5---10-9-9-7--7----4----5--5----9-7-7-4-5--5-5--|
-|--r------------r-------------r-------------r----r-------r-----------------r-|
-|-3--/7\5-5\3--3---/7\5-5\3--3---/8\7-7\5--5----2---/3--3---/7\5-5\2/3--3-3--|
-|----------------------------------------------------------------------------|
                                                                              
-|-----------------------------|
-|-----------------------------|
-|-5--10-9-9-7--5-5-7-7-5--5---|
-|---------------------------r-|
-|-3--/8\7-7\5--3-3/5-5\3--3---|
-|-----------------------------|
                                                                              
 Gtr 2
-|-----------------x4-|-----|
-|--------------------|-----|
-|-5------------------|-5---|
-|-5-r--7----3----5---|-5-r-|
-|-3----7-r--3-r--5-r-|-3---|
-|------5---\1---/3---|-----|
                                                                              

Добавлено: 08.05.2012
Другие материалы по этой песне:
  • Аккорды и текст

Страница создана 13.04.2012
http://primanota.ru/craigs-brother/potential-chords.htm
Привет, Гость.
Предлагаем пройти революционный курс по гитаре.
Подарок от PrimaNota.Ru, забирай!