PrimaNota.ru - самый крупный в мире бесплатный архив песенных текстов, аккордов, табулатур и нот


Craigs Brother - One - текст песни, таба, видео

Регистрация Запомнить меня
Войти через:  Facebook Google Twitter Vk Yandex Mail.ru

Craigs Brother - One - текст песни, таба, видео

Печатать
Просмотров: 131
One - Craigís Brother
Tabber - Shono


Tuning: D#

Intro 1
 Gtr 1
-|------------------------------------x2-|
-|---------------------------------------|
-|-9999999999999999-7--------------------|
-|--------------------9999999999999999-5-|
-|---------------------------------------|
-|---------------------------------------|

 Gtr 2 - (come in on second time of Gtr 1)
-|--------------------------------------------------------------------x2-|
-|-----------------------------------------------------------------------|
-|-12121212121212121212121212121212--------------------------------------|
-|----------------------------------9-12121212121212121212121212121212-9-|
-|-----------------------------------------------------------------------|
-|-----------------------------------------------------------------------|

 Gtr 1
-|------------------------------------------------------------------------|
-|------------------------------------------------------------------------|
-|-121212-111111-99--121212-111111-99-------------------------------------|
-|-------------------------------------121212-101010-99--121212-101010-99-|
-|------------------------------------------------------------------------|
-|------------------------------------------------------------------------| \
                                                                               x2
-|------------------------------------------------------------------------| /
-|------------------------------------------------------------------------|
-|-121212-111111-99--121212-111111-99-------------------------------------|
-|-------------------------------------121212-101010-99--101010-999-77----|
-|------------------------------------------------------------------------|
-|------------------------------------------------------------------------|

 Gtr 2
-|--------------------------------------------------------------------|
-|--------------------------------------------------------------------|
-|-12121212121212121212121212121212-----------------------------------|
-|-----------------------------------9-121212-101010-99-101010-999-77-|
-|--------------------------------------------------------------------|
-|--------------------------------------------------------------------|

-|------------------------------------------x2-|
-|---------------------------------------------|
-|-9999999999----------------------------------|
-|------------121212-101010-9999999999-777-555-|
-|---------------------------------------------|
-|---------------------------------------------|

Intro 2
 Gtr 1
-|------------------------------------------|-----------------------------------------|
-|------------------------------------------|-----------------------------------------|
-|------------------------------------------|-----------------------------------------|
-|------10----------9--------7--------------|------10----------9--------7-------------|
-|-1212----12--1010---10--99---9-------10-9-|-1212----12--1010---10--99---9-----------|
-|--*-*---------*-*-------**------1010------|--*-*---------*-*-------**------1010--x\-|
                                   * *                                        * *

 Gtr 2
-|---------------------------------------------------|
-|---------------------------------------------------|
-|-14---12---11---11-12---17---16---14---14----------|
-|---------------------------------------------------|
-|-12---10----9----9-10--/15---14---12---12-/--------|
-|----------------------------------------------x\---|

Verse
 Gtr 1
-|--------------------------|-------------------------|
-|--------------------------|-------------------------|
-|--------------------------|-------------------------|
-|-7----5----4----4444-5555-|-7----5----4-------------|
-|-7-6--5-6--4-6--4444-5555-|-7-6--5-6--4-44444444444-|
-|-5----3----2----2222-3333-|-5----3----2-22222222222-|
                                          ***********
 Gtr 2
-|----------------------------------|----------------------------|
-|----------------------------------|----------------------------|
-|-17---16---14---14141414-16161616-|-17---16---16---------------|
-|---6----6----6--------------------|---6----6------4------------|
-|-15---14---12---12121212-14141414-|-15---14---12--4-4444444444-|
-|----------------------------------|---------------2-2222222222-|
                                                      **********
Chorus
 Gtr 1
-|------------------------------------------------------|
-|------------------------------------------------------|
-|-------99-77-55-44--5-----12121212-11111111-----5^-5^-|
-|-5------------------5-12--12121212-11111111--5^-------|
-|-5-12--77-55-33-22--3-----10101010--9-9-9-9-----------|
-|-3----------------------------------------------------|

 Gtr 2
-|-----------------------------------------------|
-|-----------------------------------------------|
-|-------------5-----12121212-11111111-----5^-5^-|
-|-5-----7-----5-12--12121212-11111111--5^-------|
-|-5-12--7-12--3-----10101010--9-9-9-9-----------|
-|-3-----5---------------------------------------|

 Gtr 1
-|------------------------------------|
-|------------------------------------|
-|-------99-77-55-44--5-----12-11---9-|
-|-5------------------5-12-------r----|
-|-5-12--77-55-33-22--3-----10-\9---7-|
-|-3----------------------------------|

 Gtr 2
-|---------------------------|
-|---------------------------|
-|-------------5-----12---12-|
-|-5-----7-----5-12----r-----|
-|-5-12--7-12--3-----10---10-|
-|-3-----5-------------------|






Solo
 Gtr 1
-|-12-----------------------------------------------------------------12----|
-|-15b17--15b17-15b17-15b17r15--15---12-------------------------------15b17-|
-|-----------------------------------14b16--14b16-14b16-14b16r14--14--------|
-|--------------------------------------------------------------------------|
-|--------------------------------------------------------------------------|
-|--------------------------------------------------------------------------|

-|-15-14---------------------------/17-15-----14----|
-|--------15-12-----------------15-----18b20--17b19-|
-|---------------12-11----14-14---------------------|
-|---------------------12---------------------------|
-|--------------------------------------------------|
-|--------------------------------------------------|

 Gtr 2
-|--------------------------|
-|--------------------------|
-|--------------------------|
-|-2----5----2----5555-4444-|
-|-2-8--5-8--2-8--5555-4444-|
-|-0----3----0----3333-2222-|

Intro
 Gtr 1
-|------------------------------------x2-|
-|---------------------------------------|
-|-9999999999999999-7--------------------|
-|--------------------9999999999999999-5-|
-|---------------------------------------|
-|---------------------------------------|

 Gtr 2
-|--------------------------------------------------------------------x2-|
-|-----------------------------------------------------------------------|
-|-12121212121212121212121212121212--------------------------------------|
-|----------------------------------9-12121212121212121212121212121212-9-|
-|-----------------------------------------------------------------------|
-|-----------------------------------------------------------------------|

 Gtr 1
-|------------------------------------------------------------------------|
-|------------------------------------------------------------------------|
-|-121212-111111-99--121212-111111-99-------------------------------------|
-|-------------------------------------121212-101010-99--121212-101010-99-|
-|------------------------------------------------------------------------|
-|------------------------------------------------------------------------|

-|---------------------------------------------------------------------|
-|---------------------------------------------------------------------|
-|-121212-111111-99--121212-111111-99----------------------------------|
-|-------------------------------------121212-101010-99--101010-999-77-|
-|---------------------------------------------------------------------|
-|---------------------------------------------------------------------|

 Gtr 2
-|------------------------------------------x2-|
-|---------------------------------------------|
-|-9999999999----------------------------------|
-|------------121212-101010-9999999999-777-555-|
-|---------------------------------------------|
-|---------------------------------------------|
Intro 2
Verse

Chorus 2
 Gtr 1
-|------------------------------------------------------|
-|------------------------------------------------------|
-|-------99-77-55-44--5-----12121212-11111111-----5^-5^-|
-|-5------------------5-12--12121212-11111111--5^-------|
-|-5-12--77-55-33-22--3-----10101010--9-9-9-9-----------|
-|-3----------------------------------------------------|

 Gtr 2
-|-----------------------------------------------|
-|-----------------------------------------------|
-|-------------5-----12121212-11111111-----5^-5^-|
-|-5-----7-----5-12--12121212-11111111--5^-------|
-|-5-12--7-12--3-----10101010--9-9-9-9-----------|
-|-3-----5---------------------------------------|

 Gtr 1
-|------------------------------------------|
-|------------------------------------------|
-|-------99-77-55-44--5-----16--14--1212-12-|
-|-5------------------5-12----r---r---------|
-|-5-12--77-55-33-22--3-----14--12--1010-10-|
-|-3----------------------------------------|

  Gtr 2
-|-------------------------------------|
-|-------------------------------------|
-|-------------5-----12--11---99-9--99-|
-|-5-----7-----5-12----r---r--------99-|
-|-5-12--7-12--3-----10---9---77-7--77-|
-|-3-----5-----------------------------|

Break
 Gtr 1
-|---------------------------------------------------------|
-|---------------------------------------------------------|
-|-------12-------11---------------------------------------|
-|----------14-------14-----14----12--------14-12----------|
-|----14-----*-14-----*-14-----14----14-12---*--*-14-12-14-|
-|-12--*--------*--------*------*-----*--*---------*--*--*-|
    *
-|---------------------------------------------------|
-|---------------------------------------------------|
-|-12-------11---------------------------------------|
-|----14-------14-----14----12--------14-12----------|
-|-----*-14-----*-14-----14----14-12--------14-12-14-|
-|--------*--------*------*-----*--*---------*--*--*-|

-|--------------------------------------------------||----------------------------------|
-|--------------------------------------------------||----------------------------------|
-|-12-------11--------------------------------------||----------------------------------|
-|----14-------14-----------12-------14-------------||----------------------------------|
-|-----*-14-----*-14-----12--*-12-------14-12----12-||-141414-121212--------------------|
-|--------*--------*--14--*-----*-14-----*--*-14--*-||--*-*-*--*-*-*-1515-141414-111111-|
                       *           *           *                      * *  * * *  * * *




-|----------------------------------|
-|----------------------------------|
-|-16------14------12----11------12-|
-|----1414----1414----14----1414----|
-|-----*-*-----*-*-----*-----*-*----|
-|----------------------------------|

 Gtr 2
-|----------|--------------------------------------|
-|----------|--------------------------------------|
-|----------|-----------------------------------11-|
-|----------|-9-12--------7-12--------12121212--11-|
-|-5-8--9-8-|-7-----7-12--5-----5-12--10101010---9-|
-|-3----7---|-*-----5-----*-----3------*-*-*-*-----|
   *    *           *           *
Break 2
 Gtr 1
-|----------------------------------------------------------|
-|----------------------------------------------------------|
-|-4--444--4-7-5--555--5-4-7--777--7-5-4--9-1111-11-12-11-9-|
-|----------------------------------------------------------|
-|-2--222--2/5-3--333--3\2-5--555--5\3-2--7/-9-9--9/10\-9-7-|
-|----------------------------------------------------------|

-|-----------------------------------------------------------------|
-|-----------------------------------------------------------------|
-|-9--999--9-7-5--555--16-17-16-14--141414-14-11--12--121212-12-14-|
-|-----------------------------------------------------------------|
-|-7--777--7\5-3--333--14/15\14-12--121212-12\-9--10--101010-10/12-|
-|-----------------------------------------------------------------|

 Gtr 2
-|-----------------------------------------------x2-|
-|--------------------------------------------------|
-|-9--99--------------------------------------------|
-|-9--99--99-7--77--7--5--4--44--7--5--5-44--9-11-9-|
-|-7--77--99-7--77--7--5--4--44--7--5--5-44--7-/9\7-|
-|--------77-5--55--5-\3--2--22-/5--3--3\22---------|

Bridge
 Gtr 1
-|------------------------------------------------|
-|------------------------------------------------|
-|------------------------------------------------|
-|-101010-999-77-999-777-55-777-555-44-555-444-00-|
-|------------------------------------------------|
-|------------------------------------------------|

 Gtr 2
-|-------------------------------------|
-|-------------------------------------|
-|-------------------------------------|
-|-77777777-55555555-44444444--444-555-|
-|-------------------------------------|
-|-------------------------------------|

 Gtr 1
-|-------------------------------------------------|
-|-------------------------------------------------|
-|-------------------------------------------------|
-|-101010-999-77-999-777-55-777-555-44-555-444-----|
-|-------------------------------------------------|
-|----------------------------------------------x\-|
 Gtr 2
-|-------------------------------------|
-|-------------------------------------|
-|-------------------------------------|
-|-77777777-55555555-44444444--444-----|
-|-------------------------------------|
-|----------------------------------x\-|

Verse

Chorus 3
 Gtr 1
-|---------------------------------------------------------|
-|------------------------------------------------------5^-|
-|-------99-77-55-44--5-----12121212-11111111--5^----5^----|
-|-5------------------5-12--12121212-11111111-----5^-------|
-|-5-12--77-55-33-22--3-----10101010--9-9-9-9--------------|
-|-3-------------------------------------------------------|

 Gtr 2
-|--------------------------------------------------|
-|-----------------------------------------------5^-|
-|-------------5-----12121212-11111111--5^----5^----|
-|-5-----7-----5-12--12121212-11111111-----5^-------|
-|-5-12--7-12--3-----10101010--9-9-9-9--------------|
-|-3-----5------------------------------------------|

 Gtr 1
-|-------------------|
-|-------------------|
-|-------99-77-55-44-|
-|-5-----------------|
-|-5-12--77-55-33-22-|
-|-3-----------------|

 Gtr 2
-|------------|
-|------------|
-|------------|
-|-5-----7----|
-|-5-12--7-12-|
-|-3-----5----|

Outro
 Gtr 1
-|-----------------------x3-|------------------|
-|--------------------------|------------------|
-|--9--141414-121212-111111-|-16-14-12-11-7-9--|
-|--------------------------|----------------r-|
-|-/7-/121212-101010--9-9-9-|-14-12-10--9-5-7--|
-|--------------------------|------------------|

 Gtr 2
-|-------x3-|-----|
-|----------|-----|
-|-5----7---|-----|
-|-5-6--7-6-|-2---|
-|-3----5---|-2-r-|
-|----------|-0---|
Добавлено: 03.05.2012
Другие материалы по этой песне:
  • Аккорды и текст

Страница создана 03.05.2012
http://primanota.ru/craigs-brother/one-chords.htm
Привет, Гость.
Предлагаем пройти революционный курс по гитаре.
Подарок от PrimaNota.Ru, забирай!