PrimaNota.ru - самый крупный в мире бесплатный архив песенных текстов, аккордов, табулатур и нот


Craigs Brother - Nobody - таба, видео

Регистрация Запомнить меня
Войти через:  Facebook Google Twitter Vk Yandex Mail.ru

Craigs Brother - Nobody - таба, видео

Печатать
Просмотров: 121
Nobody - Craigs Brother
tabber - shonofear


D# Tuning

Intro
 Gtr 1
-|-----------------------------------------------------------|
-|-----------------------------------------------------------|
-|-7777-7/9\7777-7/9\7777-12-1111--9999-9\7/9999-9\7/9----77-|
-|-----------------------------------------------------6-----|
-|-5555-5/7\5555-5/7\5555-10--9-9--7777-7\5/7777-7\5/7----55-|
-|-----------------------------------------------------------|

-|--------------------------------------------------------3---|
-|--------------------------------------------------------4---|
-|-7777-7/9\7----8----9-1111-9/11\9----11---12--11---5----5---|
-|------------6----6----------------6----6----6---6----r--5-r-|
-|-5555-5/7\5----6----7--9-9-7/-9\7-----9---10---9---3----3---|
-|------------------------------------------------------------|

 Gtr 2
-|-------------------|-----------------------------------------------------|
-|-------------------|-----------------------------------------------------|
-|-------77-9-----77-|-------------9----7----5----7------5------5--12--14--|
-|-5-----77---24-----|-5-----9-----9-6--7-6--5-6--7-6----5-r---------r---r-|
-|-5-24--55-7-----55-|-5-12--9-12--7----5----3----5------3------3-/10--12--|
-|-3-----------------|-3-----7---------------------------------------------|

Verse
 Gtr 1
-|-------------------------------------------------------------|
-|-------------------------------------------------------------|
-|-12---14--16---16--14--12---11--12-12---12-11----------------|
-|---r---------------------r-----------r----------2--2--2------|
-|-10--/12-/14---14--12--10----9--10-10---10--9---2--2--2-r----|
-|------------------------------------------------0--0--0---x\-|

 Gtr 2
-|-------------------------------------------------------------|
-|-------------------------------------------------------------|
-|-12------------12--11--9-----7--9--7-----4-5-----------------|
-|---r---------------------r-----------r----------2--2--2------|
-|-10------------10---9--7-----5--7--5-----2-3----2--2--2-r----|
-|------------------------------------------------0--0--0---x\-|

Both Gtrís
-|--------------------|----------------------------------|
-|--------------------|----------------------------------|
-|-12-----77-9-----77-|-12-----77-9-----77---------------|
-|-12-24--77-9-24--77-|-12-24--77-9-24--77--5------9-----|
-|-10-----55-7-----55-|-10-----55-7-----55--5-12---9-----|
-|--------------------|---------------------3------7--x\-|









Chorus 1
 Gtr 1
-|--------------------|--------------------|---------------|
-|--------------------|--------------------|---------------|
-|-9----7----5----7---|-9----11---12---11--|-12---11---9---|
-|-9-6--7-6--5-6--7-6-|---6----6----6----6-|---6----6----r-|
-|-7----5----3----5---|-7-----9---10----9--|-10----9---7---|
-|--------------------|--------------------|---------------|
 Gtr 2
-|--------------------|--------------------|---------------|
-|--------------------|--------------------|---------------|
-|-9----7----5----7---|-9----7----5----7---|-9----7----5---|
-|-9-6--7-6--5-6--7-6-|-9-6--7-6--5-6--7-6-|-9-6--7-6--5-r-|
-|-7----5----3----5---|-7----5----3----5---|-7----5----3---|
-|--------------------|--------------------|---------------|

Intro
 Gtr 1
-|-------------------------------------------------------|
-|-------------------------------------------------------|
-|-7777-7/9\7777-7/9\7777-12-1111--9999-9\7/9999-9\7/9---|
-|-----------------------------------------------------6-|
-|-5555-5/7\5555-5/7\5555-10--9-9--7777-7\5/7777-7\5/7---|
-|-------------------------------------------------------|

 Gtr 2
-|---------------|
-|---------------|
-|-------77-9----|
-|-5-----77-9-24-|
-|-5-24--55-7----|
-|-3-------------|

Verse 2
 Both Gtrís
-|--------------------|--------------------------------------------------|
-|--------------------|--------------------------------------------------|
-|-12-----77-9-----77-|-12-----14-----9-----7h9-999-7h9-9-77-------------|
-|-12-24--77-9-24--77-|-12-12--12-14--9-12-------------------5-----9-----|
-|-10-----55-7-----55-|-10-----10-----7----------------------5-12--9-----|
-|--------------------|--------------------------------------3-----7--x\-|

Chorus 2
 Gtr 1
-|--------------------|--------------------|----------------------------------------|
-|--------------------|--------------------|----------------------------------------|
-|-9----7----5----7---|-9----11---12---11--|-1313-13-1313-13-1212-12-1212-12-99-9---|
-|-9-6--7-6--5-6--7-6-|---6----6----6----6-|--------------------------------------r-|
-|-7----5----3----5---|-7-----9---10----9--|-1111-11-1111-11-1010-10-1010-10-77-7---|
-|--------------------|--------------------|--*-*-----*-*-----*-*-----*-*----**-----|

 Gtr 2
-|-----------------x2-|---------------------------------------|
-|--------------------|---------------------------------------|
-|-9----7----5----7---|----9----9----7----7----5----5--12--14-|
-|-9-6--7-6--5-6--7-6-|-99-9-99-9-77-7-77-7-55-5-r------------|
-|-7----5----3----5---|-77-7-77-7-55-5-55-5-33-3---/3-/10-/12-|
-|--------------------|-**---**---**---**---**----------------|





Intro
 Gtr 1
-|------------------------------------------------------|
-|------------------------------------------------------|
-|-7777-7/9\7-7----8----9-1111-9----12-11-9-7-5-4-5-4-2-|
-|--------------6----6-----------6--------------------2-|
-|-5555-5/7\5-5----6----7--9-9-7----10--9-7-5-3-2-3-2-0-|
-|------------------------------------------------------|

 Gtr 2
-|------------------------|
-|------------------------|
-|-------------9-----5----|
-|-5-----9-----9-12--5-12-|
-|-5-12--9-12--7-----3----|
-|-3-----7----------------|

Bridge 1
 Gtr 1
-|-------------------------------|
-|-------------------------------|
-|-------77-9-----77-------------|
-|-5-----77-9-24--77--5-----9----|
-|-5-24--55-7-----55--5-12--9-12-|
-|-3------------------3-----7----|

 Gtr 2
-|--------x3-|------|--------x3-|------------------------------------|
-|-----------|------|-----------|----8-7-8888-7-8888-----------------|
-|-4-4-2-----|-4--2-|-7-7-5-4---|-77------------------8---999-111111-|
-|-------5-4-|------|---------7-|-----------------------6------------|
-|-----------|------|-----------|---------------------6---777--9-9-9-|
-|-----------|------|-----------|------------------------------------|

Bridge 2
 Gtr 1
-|---------------------------------------------|
-|---------------------------------------------|
-|---------------------------------------------|
-|---------------------------------------------|
-|-1010101010101010-99999999-77777777-99999999-|
-|--*-*-*-*-*-*-*-*-********-********-********-|

 Gtr 2
-|-------------------------------------|
-|-------------------------------------|
-|-------------------------------------|
-|-------------------------------------|
-|-77777777-55555555-33333333-55555555-|
-|-********-********-********-********-|

 Gtr 1
-|----------------------------------------------------------------------|
-|----------------------------------------------------------------------|
-|----------------------------------------------------14--14-16-14-1212-|
-|----------------------------------------------------------------------|
-|-1414141414141414-1212121212121212-1010101010101010-12--12/14-12-1010-|
-|--*-*-*-*-*-*-*-*--*-*-*-*-*-*-*-*--*-*-*-*-*-*-*-*-------------------|





 Gtr 2
-|---------------------------------------|
-|---------------------------------------|
-|------------------------------------11-|
-|------------------------------------11-|
-|-1010101010101010-99999999-77777777--9-|
-|--*-*-*-*-*-*-*-*-********-********----|

Bridge 3
 Gtr 1
-|---------------------|
-|---------------------|
-|-12---11---9---9-7---|
-|---8----8----8-----r-|
-|-10----9---7---7-5---|
-|---------------------|

 Gtr 2
-|---------------------|
-|---------------------|
-|-9----7----5---------|
-|-9-6--7-6--5-12--5---|
-|-7----5----3-----5-r-|
-|-----------------3---|

Verse 3
 Gtr 1
-|----------------------------------------|
-|----------------------------------------|
-|-7--12---12----5----9----8-------5------|
-|------r----------r----r----8-16--5------|
-|-5-/10---10\---3---/7----6-6-----3------|
-|---------------------------*---------x\-|

 Gtr 2
-|----------------------------------------|
-|----------------------------------------|
-|---16----16----5----5----5-------5------|
-|-----r---------5-r--5-r--5-5-16--5------|
-|--/14----14\---3----3----3-3-----3------|
-|---------------------------*---------x\-|

Outro
 Gtr 1
-|--------------------------------------------------------------------|
-|--------------------------------------------------------------------|
-|-------77-9-----77---------------12---11---9---------------7------7-|
-|-5-----77-9-24--77--5-----9--------6----6----r---------------r------|
-|-5-24--55-7-----55--5-12--9-12---10----9---7---------------5------5-|
-|-3------------------3-----7-----------------------------------------|

 Gtr 2
-|--------------------------------------------------------------------|
-|--------------------------------------------------------------------|
-|-------77-9-----77---------------9----7----5----5--12--14-----------|
-|-5-----77-9-24--77--5-----9------9-6--7-6--5-r-------------5------5-|
-|-5-24--55-7-----55--5-12--9-12---7----5----3---/3-/10-/12--5-r----5-|
-|-3------------------3-----7--------------------------------3------3-|
Добавлено: 01.05.2012
Другие материалы по этой песне:
  • Аккорды и текст

Страница создана 01.05.2012
http://primanota.ru/craigs-brother/nobody-chords.htm
Привет, Гость.
Предлагаем пройти революционный курс по гитаре.
Подарок от PrimaNota.Ru, забирай!