PrimaNota.ru - самый крупный в мире бесплатный архив песенных текстов, аккордов, табулатур и нот


Craigs Brother - Lost At Sea - текст песни, таба, видео

Регистрация Запомнить меня
Войти через:  Facebook Google Twitter Vk Yandex Mail.ru

Craigs Brother - Lost At Sea - текст песни, таба, видео

Печатать
Просмотров: 222
Lost At Sea - Craigs Brother
tabber - shonofear


Tuning: D#

Intro
 Gtr 1 (Use echo effect)
-|-2-2-2-|
-|-3-3-3-|
-|-------|
-|-------|
-|-------|
-|----x3-|

 Gtr 2


-|-----------------------------------------------------|
-|-----------------------------------------------------|
-|-----------------------------------------------------|
-|-----2h4--------2h4---4------5-----4-----2-----0-----|
-|-2-2-----2-2222-----2-----2----2-----2-----2-----2---|
-|------------------------3--------3-----3-----3-----3-|

-|---------------------------------------------------|
-|---------------------------------------------------|
-|---------------------------------------------------|
-|-----2h4--------5p4-2h4------5-----0-----2---------|
-|-2-2-----2-2222-----------2----2-----2-----2---4-r-|
-|------------------------3--------3-----3-----3-----|

-|-----------------------------------------------------|
-|-----------------------------------------------------|
-|-----------------------------------------------------|
-|-----2h4--------2h4---4------5-----4-----2-----0-----|
-|-2-2-----2-2222-----2-----2----2-----2-----2-----2---|
-|------------------------3--------3-----3-----3-----3-|

-|------------|
-|------------|
-|-4------4-r-|
-|-4-r---4----|
-|-2----2-----|
-|------------|

Verse 1
 Both Gtrís

-|--------------------------------------------|
-|--------------------------------------------|
-|-4---44--------------4---44-----------------|
-|-4-r-44-r--5---55----4-r-44-r--4---44-----4-|
-|-2---22----5-r-55-r--2---22----4-r-44-r-4-4-|
-|-----------3---33--------------2---22---2-2-|
                                          *
-|---------------------------------------|
-|---------------------------------------|
-|-4---44--------------7---77------------|
-|-4-r-44-r--5---55----7-r-77-r--7-------|
-|-2---22----5-r-55-r--5---55----7-r-----|
-|-----------3---33--------------5----x\-|






Pre Chorus 1
 Gtr 1
-|------------------------|----------------------------------------|
-|------------------------|----------------------------------------|
-|-------------7----7-7-7-|-------------9--------------------------|
-|-5-----7-----7-6--7-7-7-|-5-----7-----9-12--4-------4--------4---|
-|-5-12--7-12--5----5-5-5-|-5-12--7-12--7-----4-4-16--4-8--444-4-r-|
-|-3-----5----------------|-3-----5-----------2-2-----2----222-2---|
                                                *          ***
 Gtr 2
-|------------------------|----------------------------------------|
-|------------------------|---------------------------5--------5---|
-|-------------7----7-7-7-|-------------9-------------6-8------6-r-|
-|-5-----7-----7-6--7-7-7-|-5-----7-----9-12--4-------4----444-4---|
-|-5-12--7-12--5----5-5-5-|-5-12--7-12--7-----4-4-16-------***-----|
-|-3-----5----------------|-3-----5-----------2-2------------------|

Chorus 1
 Gtr 1


-|----------------------------------|
-|----------------------------------|
-|-4-----9----7----------77--1414---|
-|-4-12--9-6--7-6--7-----77-------4-|
-|-2-----7----5----7-12--55--1212-4-|
-|-----------------5--------------2-|

 Gtr 2


-|----------------------------------|
-|----------------------------------|
-|-4-----9----7----9---1111---111---|
-|-4-12--9-6--7-6---12------------7-|
-|-2-----7----5----7----9-9---9-9---|
-|--------------------------------5-|

 Gtr 1
-|------------|------------------------|
-|------------|------------------------|
-|------------|-9999-9-11---9999-9-11--|
-|-5-----7----|----------r-----------r-|
-|-5-12--7-12-|-7777-7--9---7777-7--9--|
-|-3-----5----|------*-----------*-----|

 Gtr 2
-|--------------------------|------------------------|
-|--------------------------|------------------------|
-|-4---66-7777--6---77-9999-|-6666-6-7----6666-6-7---|
-|---6------------6---------|----------r-----------r-|
-|-2---44-5555--4---55-7777-|-4444-4-5----4444-4-5---|
-|--------------------------|------*-----------*-----|

 Gtr 1
-|----------------------------------|
-|----------------------------------|
-|-4-----9----7----------77--1414---|
-|-4-12--9-6--7-6--7-----77-------4-|
-|-2-----7----5----7-12--55--1212-4-|
-|-----------------5--------------2-|

 Gtr 2
-|----------------------------------|
-|----------------------------------|
-|-4-----9----7----9---1111--1111---|
-|-4-12--9-6--7-6---12------------7-|
-|-2-----7----5----7----9-9---9-9---|
-|--------------------------------5-|

 Gtr 1
-|------------|------------------------------|
-|------------|------------------------------|
-|------------|-9999-11111111-1111--9999-11--|
-|-5-----7----|----------------------------8-|
-|-5-12--7-12-|-7777--9-9-9-9--9-9--7777--9--|
-|-3-----5----|------------------------------|

 Gtr 2
-|-------------------------|------------------------|
-|-------------------------|------------------------|
-|-4---66-7777-6---77-9999-|-6666-7777-77--6666-7---|
-|---6-----------6---------|----------------------8-|
-|-2---44-5555-4---55-7777-|-4444-5555-55--4444-5---|
-|-------------------------|------------------------|

Post Chorus
 Both Gtrís


-|------------------------------------------------|
-|------------------------------------------------|
-|-7----8----9-------------7----------------------|
-|-7-6--8-6--9-12--7-------7-777777---------------|
-|-5----6----7-----7-7-12--5-555555-4h5-55-4h5-55-|
-|-----------------5-5-------******-----**-----**-|
                     *
 Gtr 1
-|--------------------------------|
-|--------------------------------|
-|-7----8----9-------------7------|
-|-7-6--8-6--9-12--7-------7-7-12-|
-|-5----6----7-----7-7-12--5-5----|
-|-----------------5-5-------*----|
                     *
 Gtr 2
-|-------------------------------------------|
-|-------------------------------------------|
-|-7----8----9----11-12-11-9----------7------|
-|-7-6--8-6--9-6--------------7-------7-7-12-|
-|-5----6----7-----9-10--9-7--7-7-12--5-5----|
-|----------------------------5-5-------*----|
                                *
 Gtr 1
-|---------------------------------------------|
-|---------------------------------------------|
-|-44-22-------------------3----6----11----15--|
-|-------55-44-22------------r----r----r-----r-|
-|----------------55-44-22-1---/4---/-9---/13--|
-|---------------------------------------------|

 Gtr 2
-|-----------------------------------------9-r-|
-|-88-77------------------------------11-r-----|
-|-------99-77-66----6/99-77-6-r-/9-r----------|
-|----------------99---------------------------|
-|---------------------------------------------|
-|---------------------------------------------|









Verse 2
 Both Gtrís


-|--------------------------------------------|
-|--------------------------------------------|
-|-4---44--------------4---44-----------------|
-|-4-r-44-r--5---55----4-r-44-r--4------4---4-|
-|-2---22----5-r-55-r--2---22----4-r--4-4-4-4-|
-|-----------3---33--------------2----2-2-2-2-|
                                      *   *
 Gtr 1
-|-----------------------------------------------|
-|-----------------------------------------------|
-|-4---44---------------------------x-x-x-x-xxxx-|
-|-4-r-44-r--5---55----77777777--4--x-x-x-x-xxxx-|
-|-2---22----5-r-55-r--55555555--4--x-x-x-x-xxxx-|
-|-----------3---33----********--2--x-x-x-x-xxxx-|

 Gtr 2
-|--------------------------------------------------|
-|--------------------------------------------------|
-|-4---44------------------------------x-x-x-x-xxxx-|
-|-4-r-44-r--5---55-----------------4--x-x-x-x-xxxx-|
-|-2---22----5-r-55-r--99-77-55-77--4--x-x-x-x-xxxx-|
-|-----------3---33----**-**-**-**--2--x-x-x-x-xxxx-|

Pre Chorus 2
 Gtr 1
-|------------------|------------------|
-|------------------|------------------|
-|-------------7----|-------------9----|
-|-5-----7-----7-12-|-5-----7-----9-12-|
-|-5-12--7-12--5----|-5-12--7-12--7----|
-|-3-----5----------|-3-----5----------|

 Gtr 2
-|--------------------------------------------------|
-|--------------------------------------------------|
-|-------9---99-1111-1212-11---99--7-----9-----12---|
-|-5-------6----------------12-------30----18----12-|
-|-5-12--7---77--9-9-1010--9---77--5----/7----/10---|
-|-3------------------------------------------------|

 Gtr 1
-|---------------------------------------|
-|---------------------------------------|
-|---------------------------------------|
-|--------------------------------4----4-|
-|-44-44--44-44--44-44--44-44--44-4-44-4-|
-|-22-22--22-22--22-22--22-22--22-2-22-2-|
   ** **  ** **  ** **  ** **  **   **

 Gtr 2
-|-----------------------------------------------|
-|---------------------------5-7-5---------------|
-|---------------------4-6-7-------7-6-4h6p4-3-4-|
-|-----------------------------------------------|
-|-44-44--44-44--44-44---------------------------|
-|-22-22--22-22--22-22---------------------------|
   ** **  ** **  ** **






Chorus 2
 Gtr 1


-|----------------------------------|
-|----------------------------------|
-|-4-----9----7----------77--1414---|
-|-4-12--9-6--7-6--7-----77-------4-|
-|-2-----7----5----7-12--55--1212-4-|
-|-----------------5--------------2-|

 Gtr 2


-|----------------------------------|
-|----------------------------------|
-|-4-----9----7----9---1111---111---|
-|-4-12--9-6--7-6---12------------7-|
-|-2-----7----5----7----9-9---9-9---|
-|--------------------------------5-|

 Gtr 1


-|------------|------------------------------------|
-|------------|------------------------------------|
-|------------|----6-r----7-r----6-r----7------4---|
-|-5-----7----|----------------------------444-4-4-|
-|-5-12--7-12-|----------------------------222-2-4-|
-|-3-----5----|-/5-----/7-----/5-----/7----***---2-|

 Gtr 2
-|----------------------------|------------------------------------|
-|----------------------------|------------------------------------|
-|-4---66-7-11-9-----12121212-|---12-r---11-r---12-r---11------4---|
-|---6-----------10-----------|-9------9------7------9-----444-4-4-|
-|-2---44-5-/9-7----/10101010-|----------------------------222-2-4-|
-|----------------------------|----------------------------***---2-|

 Gtr 1
-|------------------------------------|
-|------------------------------------|
-|-4-----9----7----------77--1414-----|
-|-4-12--9-6--7-6--7-----77--------44-|
-|-2-----7----5----7-12--55--1212--44-|
-|-----------------5---------------22-|

 Gtr 2
-|----------------------------------------|
-|----------------------------------------|
-|-------9----7----9-----1111--1111--1414-|
-|-9-----9-6--7-6----12-------------------|
-|-9-12--7----5----7------9-9---9-9--1212-|
-|/7--------------------------------------|

 Gtr 1
-|-------------2---|
-|-------------3---|
-|-------------4---|
-|-5-----7-----4-r-|
-|-5-12--7-12--2---|
-|-3-----5---------|

 Gtr 2
-|---------------------------|
-|---------------------------|
-|-16161616-1414-9-----------|
-|-----------------10--9-----|
-|-14141414-1212-7-----9-r---|
-|---------------------7---\-|

Bridge
 Both Gtrís


-|-----------------------|-------------------------|
-|-----------------------|-------------------------|
-|------7----------------|------7------------------|
-|-2----7-r--7----99---7-|-5----7-r--7------99---7-|
-|-2-r--5----7-r--99-x-7-|-5-r--5----7-r-77-99-x-7-|
-|-0---------5----77-x-5-|-3---------5---55-77-x-5-|
                                         **
 Gtr 1
-|--------------------------|----------------------------|
-|--------------------------|----------------------------|
-|------7----------------14-|-19---18---7----------------|
-|-5----7-r--7------99------|---r----r--7-r--4---------4-|
-|-5-r--5----7-r-77-99-x-12-|-17---16---5----4-r--4444-4-|
-|-3---------5---55-77-x----|----------------2----2222-2-|
                 **                               ****
 Gtr 2
-|-------------------------|----------------------------|
-|-------------------------|----------------------------|
-|------7------------------|-----------7----6----6666-6-|
-|-5----7-r--7------99---7-|-5----5----7-r----r---------|
-|-5-r--5----7-r-77-99-x-7-|-5-r--5-r--5----4----4444-4-|
-|-3---------5---55-77-x-5-|-3----3--------------****---|
                 **
Bridge 2
 Both Gtrís


-|-----------------------------------------------------x2-|
-|--------------------------------------------------------|
-|--------------------------------------------------------|
-|-9------9------7------7------5------5------7------7-----|
-|-9-9999-9-999--7-7777-7-777--5-5555-5-555--7-7777-7-777-|
-|-7-7777-7-777--5-5555-5-555--3-3333-3-333--5-5555-5-555-|
     ****   ***    ****   ***    ****   ***    ****   ***

-|----------------------------------------------------------------|
-|----------------------------------------------------------------|
-|----------------------------------------------------------------|
-|-9------9---9----7------7---7----5------5---5----7------7---7---|
-|-9-9999-9-9-9-9--7-7777-7-7-7-7--5-5555-5-5-5-5--7-7777-7-7-7-7-|
-|-7-7777-7-7-7-7--5-5555-5-5-5-5--3-3333-3-3-3-3--5-5555-5-5-5-5-|
     ****   *   *    ****   *   *    ****   *   *    ****   *   *

-|-----------------------------------------------------|
-|-----------------------------------------------------|
-|-----------------------------------------------------|
-|-9------9---9----7------7---7----5------5---5----7---|
-|-9-9999-9-9-9-9--7-7777-7-7-7-7--5-5555-5-5-5-5--7-8-|
-|-7-7777-7-7-7-7--5-5555-5-5-5-5--3-3333-3-3-3-3--5---|
     ****   *   *    ****   *   *    ****   *   *

Bridge 3
 Gtr 1


-|-----------------x2-|
-|--------------------|
-|--------------------|
-|-9----7----5----7---|
-|-9-8--7-8--5-8--7-8-|
-|-7----5----3----5---|








 Gtr 2
-|------------------------------------|
-|------------------------------------|
-|-12--11---11--9----9---7----7---9---|
-|---r---r----r---r----r---r----r---r-|
-|-10---9----9--7----7---5----5---7---|
-|------------------------------------|

-|----------------------------------------|
-|----------------------------------------|
-|-12--11---11--9----9---7---11---9---9---|
-|---r---r----r---r----r---r---r----r---r-|
-|-10---9----9--7----7---5---/9---7---7---|
-|----------------------------------------|

Outro 1
 Gtr 1


-|-----------------x6-|
-|--------------------|
-|-4---44-------------|
-|-4-r-44-r--5---55---|
-|-2---22----5-r-55-r-|
-|-----------3---33---|

 Gtr 2
-|-----|-------|---------|-----------|-------|
-|-----|-------|---------|-----------|-------|
-|-----|-------|---------|-----------|-------|
-|-9-r-|-5-4-r-|-4-r/9-r-|-9-/11-9-r-|-7-9-r-|
-|-----|-------|---------|-----------|-------|
-|-----|-------|---------|-----------|-------|

Outro 2
 Gtr 1 (sum effect)


-|------------------------------------------------------|
-|------------------------------------------------------|
-|-4----7--9--11--9----9--11--12--11----14--12--11--7---|
-|---r--------------r---------------r-----------------r-|
-|-2---/5-/7-/-9-\7----7-/-9-/10-\-9---/12-\10-\-9-\5---|
-|------------------------------------------------------|

-|------------------------------------------|
-|------------------------------------------|
-|--16-----14--11----12----11----9------11--|
-|----r----------r-----r-----r-----r------r-|
-|-/14----\12-\-9---/10---\-9---\7-----/-9--|
-|------------------------------------------|

 Gtr 2
-|---------------------x4-|
-|------------------------|
-|------------------------|
-|-4-r--4-4-r-------------|
-|-2----2-2----2-r--2-2-r-|
-|-------------3----3-3---|

-|------------------------------------------------2-r-|
-|-----------------------------------------------3----|
-|----------------------------------------------4-----|
-|-4-r--4-4-r--2-r--2-2-r----------------------4------|
-|-2----2-2----0----0-0-----------4-5-r--5-r--2-------|
-|-------------------------0-2-3----------------------|
Добавлено: 30.06.2012
Другие материалы по этой песне:
  • Аккорды и текст

Страница создана 12.03.2012
http://primanota.ru/craigs-brother/lost-at-sea-chords.htm
Привет, Гость.
Предлагаем пройти революционный курс по гитаре.
Подарок от PrimaNota.Ru, забирай!