PrimaNota.ru - самый крупный в мире бесплатный архив песенных текстов, аккордов, табулатур и нот


Craigs Brother - In Memory - текст песни, таба, видео

Регистрация Запомнить меня
Войти через:  Facebook Google Twitter Vk Yandex Mail.ru

Craigs Brother - In Memory - текст песни, таба, видео

Печатать
Просмотров: 124
In Memory - Craig's Brother
tabber - shonofear

Tuning: D#

Intro
-|--------------------------|-------------------------|
-|--------------------------|-------------------------|
-|-7----14----12---16-14-12-|-11---14---12---16-14-12-|
-|-7-6--14-6----6-----------|---6----6----6-----------|
-|-5----12----10---14-12-10-|--9---12---10---14-12-10-|
-|--------------------------|-------------------------|

 Gtr 2
-|-------------------x2-|
-|----------------------|
-|-7----14----9----12---|
-|-7-6--14-6--9-6--12-6-|
-|-5----12----7----10---|
-|----------------------|

Intro 2
 Gtr 1
-|-------------------------------|
-|------888-7-5----------888-7-5-|
-|-7----777-7-7--777777--777-7-7-|
-|-7-6-----------444444----------|
-|-5-----------------------------|
-|----------------------------x2-|

 Gtr 2
-|-----------------------------------|
-|------888-7-5----------121212-10-8-|
-|-7----777-7-7--777777---7-7-7--7-7-|
-|-7-6-----------444444--------------|
-|-5---------------------------------|
-|--------------------------------x2-|
                                                                              
Verse 1
 Gtr 1                                                                              
-|------------------|
-|------------------|
-|-7-----5----------|
-|-7-12--5-12--5----|
-|-5-----3-----5-24-|
-|-------------3----|
 
 Gtr 2
-|--------------------------------------------|
-|--------------------------------------------|
-|-7-----5-------------------12----12----14---|
-|-7-12--5-6-----7/9-7----7----12--12-6--12-6-|
-|-5-----3----33-------10----10----10----10---|
-|--------------------------------------------|







                                                                             
Pre Chorus
 Gtr 1
-|------------------------------------|
-|-------------------------------8----|
-|-7---------99-777-66--999-7----7-12-|
-|-7-12--777------------------6--5----|
-|-5---------77-555-44-/777-5---------|
-|-------555--------------------------|

 Gtr 2                                                                            
-|--------------------------------------|
-|--------------------------------------|
-|-77--111111-999-777--------5----------|
-|---------------------7-----5-12--5----|
-|-55--/9-9-9-777-555--7-12--3-----5-12-|
-|---------------------5-----------3----|
                                                                              
Chorus
 Both Gtrís
-|----------------------------|----------------|
-|----------------------------|----------------|
-|-9-----------7----9----12---|-7----9----12---|
-|-9-12--7-----7-6--9-6--12-6-|-7-6--9-6--12-6-|
-|-7-----7-12--5----7----10---|-5----7----10---|
-|-------5--------------------|----------------|
                                                                            
Intro 3
 Gtr 1
-|-------------------------------|--------------------|
-|------888-7-5----------888-7-5-|--------------------|
-|-7----777-7-7--777777--777-7-7-|-7----10---9----7---|
-|-7-6-----------444444----------|-7-6----6----6----6-|
-|-5-----------------------------|-5-----8---7----5---|
-|-------------------------------|--------------------|

 Gtr 2
-|-----------------------------------|----------------888888--------------|
-|------888-7-5----------121212-10-8-|-----101010-88--888888--121212-1010-|
-|-7----777-7-7--777777---7-7-7--7-7-|-7----5-5-5-55--555555---7-7-7--7-7-|
-|-7-6-----------444444--------------|-7-6--------------------------------|
-|-5---------------------------------|-5----------------------------------|
-|-----------------------------------|------------------------------------|
                                                                              
Verse 2
 Gtr 1                                                                              
-|------------------|
-|------------------|
-|-7-----5----------|
-|-7-12--5-12--5----|
-|-5-----3-----5-24-|
-|-------------3----|

 Gtr 2
-|---------------------------------|
-|---------------------------------|
-|-7-----5-----161616-141414-12----|
-|-7-12--5-6-----------------12-24-|
-|-5-----3----/141414-121212-10----|
-|---------------------------------|
                                                                              


Pre Chorus 2
 Gtr 1
-|------------------------------------|
-|-------------------------------8----|
-|-7---------99-777-66--999-7----7-12-|
-|-7-12--777------------------6--5----|
-|-5---------77-555-44-/777-5---------|
-|-------555--------------------------|

 Gtr 2                                                                              
-|------------------------|
-|-------------------8----|
-|-7-----------5-----7-12-|
-|-7-12--7-----5-12--5----|
-|-5-----7-12--3----------|
-|-------5----------------|
                                                                              
Chorus

Break
 Gtr 1
-|-------------------|
-|-------------------|
-|-7---------------7-|
-|-7-r-------------7-|
-|-5---------------5-|
-|-------------------|
                                                                              
 Gtr 2
-|-------------------|
-|-------------------|
-|-7---7h9-9b11r9p7--|
-|---7---------------|
-|-------------------|
-|-------------------|
                                                                        
Bridge
 Gtr 1
-|-------------------------------|--------------------------------|
-|-------------------------------|--------------------------------|
-|-10----5----7----4----5--------|-7-----10----5----7----4--------|
-|-10-6--5-6--7-6----6----6--5---|-7-12--10-6--5-6--7-6----6--5---|
-|--8----3----5----2----3------6-|-5------8----3----5----2----5-r-|
-|---------------------------3---|----------------------------3---|
                                                                         
 Gtr 2
-|----------------------------------|----------------------------------------|
-|----------------------------------|----------------------------------------|
-|-10----5----7----77-9-7--9----7---|-7-----10----5----7----77-9-7--9----7---|
-|-10-6--5-6----6------------6----6-|-7-12--10-6--5-6----6------------6----6-|
-|--8----3----5----55-7-5-/7----5---|-5------8----3----5----55-7-5-/7----5---|
-|----------------------------------|----------------------------------------|
                                                                              
Intro 1
-|--------------------------|-------------------------|-------------------------|
-|--------------------------|-------------------------|-------------------------|
-|-7----14----12---16-14-12-|-11---14---12---16-14-12-|-1111-11---14---12-------|
-|-7-6--14-6----6-----------|---6----6----6-----------|--------r----6----6--5---|
-|-5----12----10---14-12-10-|--9---12---10---14-12-10-|--9-9--9---12---10---5-r-|
-|--------------------------|-------------------------|--*-*----------------3---|
 



 Gtr 2
-|-------------------x2-|-------------------------|
-|----------------------|-------------------------|
-|-7----14----9----12---|----7----14----9----12---|
-|-7-6--14-6--9-6--12-6-|-77-7-6--14-6--9-6--12-r-|
-|-5----12----7----10---|-55-5----12----7----10---|
-|----------------------|-**----------------------|
                                                                              
Outro
 Gtr 1
-|----------------------------------------------------3------------|
-|----------------------------------------------------3------------|
-|-9-------------------------7---------9---------4------4------7---|
-|-9-999999999999--7---------7-777777--9-999999--5------5------7-r-|
-|-7-777777777777--7-777777--5-555555--7-777777--5-r----5-r----5---|
-|---************--5-555555----******----******--3------3----------|
                     ******
 Gtr 2
-|-----------------------------------------------------------------|
-|-----------------------------------------------------8---/10-----|
-|-9-------------------------7---------9---------------7-r-----7---|
-|-9-999999999999--7---------7-777777--9-999999--5-----5-------7-r-|
-|-7-777777777777--7-777777--5-555555--7-777777--5-r-----------5---|
-|---************--5-555555----******----******--3-----------------|
                     ******                                                               

Добавлено: 29.03.2012
Другие материалы по этой песне:
  • Аккорды и текст

Страница создана 21.02.2012
http://primanota.ru/craigs-brother/in-memory-chords.htm
Привет, Гость.
Предлагаем пройти революционный курс по гитаре.
Подарок от PrimaNota.Ru, забирай!