PrimaNota.ru - самый крупный в мире бесплатный архив песенных текстов, аккордов, табулатур и нот


Craigs Brother - Falling Out - текст песни, таба, видео

Регистрация Запомнить меня
Войти через:  Facebook Google Twitter Vk Yandex Mail.ru

Craigs Brother - Falling Out - текст песни, таба, видео

Печатать
Просмотров: 134
Song: Falling Out
Artist: Craig's Brother
Album: Lost at Sea

Tabbed out for one guitar to play straight through. 

Capo 1, standard tuning. Tab relative to capo.

Chords
e---------------|
B-----4---------|
G-----5---5-----|
D-5---5---5---3-|
A-5---3---3---3-|
E-3-----------1-|
  G#  C#m C#  F#

e-----------------------------------------------------------------|
B-----0----0--------0-----0-----------0-----0---------0-----0-----|
G---0----0----0---0-----0-----0-----0-----0-----0---0-----0-----0-|
D-0----0----0---1-----1-----1-----2-----2-----2---3-----3-----3---|
A-----------------------------------------------------------------|
E-----------------------------------------------------------------|

e-----------------------------------------------------------------|
B-----1----1--------1-----1-----------0-----0---------0-----0-----|
G---0----0----0---0-----0-----0-----0-----0-----0---0-----0-----0-|
D-2----2----2---1-----1-----1-----0-----0-----0---0-----0-----0---|
A-----------------------------------------------------------------|
E-----------------------------------------------------------------| x4

I'm sure you're in a lot of pain,
But it's supposed to feel this way
I never did this to you
Despite the beauty we create
I just can't stand beneath your weight
I don't know what to do
I'm sure you need a helping hand
But you're stuck in sinking sand
And you're pulling me in with you
Look at the mess you drug me through
Look at the pity you pursue
I'm falling out with you

G#          C#m              G#      C#m
Help me I'm falling out with you

G#          C#m              G#      C#m
Help me I'm falling out with you

G#
So make my instincts leave me be
              F#               C#
Cause I don't want to fight or flee
                                  G#
But there's not much more you can take from me

Despite the pleasure we invoke
       F#            C#
I'm so sick of being broke
        C#m                      G#
Will it hurt this much when I've broken free?

e-----0-----0---------2-----2---------3-----3---------5-----5-----|
B---0-----0-----0---0-----0-----0---0-----0-----0---0-----0-----0-|
G-----------------------------------------------------------------|
D-2-----2-----2---4-----4-----4---5-----5-----5---7-----7-----7---|
A-----------------------------------------------------------------|
E-----------------------------------------------------------------|


e-----0-----0---------2-----2---------3-------2-------0-------0---|
B---0-----0-----0---0-----0-----0---0---0---0---0---0---0---0---0-|
G-----------------------------------------------------------------|
D-2-----2-----2---4-----4-----4---5-------4-------2-------0-------|
A-----------------------------------------------------------------|
E-----------------------------------------------------------------|

e-----0-----0---------2-----2---------3-----3---------5-----5-----|
B---0-----0-----0---0-----0-----0---0-----0-----0---0-----0-----0-|
G-----------------------------------------------------------------|
D-2-----2-----2---4-----4-----4---5-----5-----5---7-----7-----7---|
A-----------------------------------------------------------------|
E-----------------------------------------------------------------|

e---3------------------------------|
B-5-4------0-------0-----1-1/3\1---|
G-5-5----0-------0-----0---------0-|
D-5-5--0-------0-----1-------------|
A-3-3------------------------------|
E----------------------------------|

Well I try but I can't understand why I have to hold your hand
Every step of the way, day after day,
you depend on my strength to pull you through
But I'm just as weak as you

G#          C#m              G#      C#m
Help me I'm falling out with you

G#          C#m              G#      C#m
Help me I'm falling out with you

G#          C#m              G#      C#m
Help me I'm falling out with you

G#          C#m              G#      C#m
Help me I'm falling out with you

G#          C#m              G#      C#m
Help me I'm falling out with you

G#          C#m              G#      C#m
Help me I'm falling out with you

e---------------------------------3-|
B-----0-------0-----1-1/3\1-------3-|
G---0-------0-----0---------0h2p0-4-|
D-0-------0-----1-----------------5-|
A---------------------------------5-|
E---------------------------------3-|
Добавлено: 18.05.2012
Другие материалы по этой песне:
  • Аккорды и текст

Страница создана 09.05.2012
http://primanota.ru/craigs-brother/falling-out-chords.htm
Привет, Гость.
Предлагаем пройти революционный курс по гитаре.
Подарок от PrimaNota.Ru, забирай!