PrimaNota.ru - самый крупный в мире бесплатный архив песенных текстов, аккордов, табулатур и нот


Craft Spells - Sun Trails - бас-таба, видео

Регистрация Запомнить меня
Войти через:  Facebook Google Twitter Vk Yandex Mail.ru

Craft Spells - Sun Trails - бас-таба, видео

Печатать
Просмотров: 109
Авторы: Kenneth Yates, Justin Vallesteros

-----------------------------------------------------------------
Sun Trails - Craft Spells
-----------------------------------------------------------------
Tabbed By: Madrone6
e-mail: je.mathnerd15@gmail.com
Tuning: Standard

Intro: (x4)

G|----------------|----------------|
D|----------------|--------9-9-----|
A|----------------|7-7-7-7-----9-9-|
E|7-7-7-7-7-7-7-7-|----------------|

Verse: Intro (x4)

Pre-Chorus: (x2)

G|----------------|----------------|
D|----------------|----------------|
A|----------------|----------------|
E|4-4-4-4-4-4-4-4-|5-5-5-5-5-5-5-5-|

Chorus: (x4)

G|----------------|----------------|----------------|----------------|
D|----------------|----------------|7-7-7-7-7-7-7-7-|7-7-7-7-7-6-6-6-|
A|7-7-7-7-7-7-7-7-|9-9-9-9-9-9-9-9-|----------------|----------------|
E|----------------|----------------|----------------|----------------|

Break: Verse (x4)

Verse: (x4)

Pre-Chorus: (x2)

Chorus: (x4)

Outro: Verse (x16)



| /  slide up
| \  slide down
| h  hammer-on
| p  pull-off
| ~  vibrato
| +  harmonic
| x  Mute note

Добавлено: 08.10.2013
Другие материалы по этой песне:
  • Аккорды и текст

Страница создана 08.10.2013
http://primanota.ru/craft-spells/sun-trails-chords.htm
Привет, Гость.
Предлагаем пройти революционный курс по гитаре.
Подарок от PrimaNota.Ru, забирай!