PrimaNota.ru - самый крупный в мире бесплатный архив песенных текстов, аккордов, табулатур и нот


Craft Spells - Scandinavian Rush - бас-таба, видео

Регистрация Запомнить меня
Войти через:  Facebook Google Twitter Vk Yandex Mail.ru

Craft Spells - Scandinavian Rush - бас-таба, видео

Печатать
Просмотров: 82
-----------------------------------------------------------------
Scandinavian Crush - Craft Spells
-----------------------------------------------------------------
Tabbed By: Madrone6
e-mail: je.mathnerd15@gmail.com
Tuning: Standard

Intro: (x4)

G|----------------|----------------|----------------|----------------|
D|----------------|----------------|----------------|----------------|
A|9-9-9-9-9-9-9-9-|----------------|6-6-6-6-6-6-9-9-|----------------|
E|----------------|7-7-7-7-7-7-9-9-|----------------|6-6-6-6-6-6-6-6-|

Instrumental Break

Verse: (x2)

G|----------------|----------------|----------------|----------------|
D|----------------|----------------|----------------|----------------|
A|9--9--9------9--|----------------|6--6--6------9--|----------------|
E|----------------|7--7--7------9--|----------------|6--6--6------6--|

Break: Intro (x4)

Instrumental Break

Verse: (x4)

Chorus: Verse (x4)

Chorus Part 2: Intro (x4)

Outro: Verse (x4)



| /  slide up
| \  slide down
| h  hammer-on
| p  pull-off
| ~  vibrato
| +  harmonic
| x  Mute note

Добавлено: 06.09.2013
Другие материалы по этой песне:
  • Аккорды и текст

Страница создана 06.09.2013
http://primanota.ru/craft-spells/scandinavian-rush-chords.htm
Привет, Гость.
Предлагаем пройти революционный курс по гитаре.
Подарок от PrimaNota.Ru, забирай!