PrimaNota.ru - самый крупный в мире бесплатный архив песенных текстов, аккордов, табулатур и нот


Craft Spells - Leave My Shadow - бас-таба, видео

Регистрация Запомнить меня
Войти через:  Facebook Google Twitter Vk Yandex Mail.ru

Craft Spells - Leave My Shadow - бас-таба, видео

Печатать
Просмотров: 106
Авторы музыки: Justin Vallesteros
Авторы текста: Justin Vallesteros
-----------------------------------------------------------------
Leave My Shadow - Craft Spells
-----------------------------------------------------------------
Tabbed By: Madrone6
e-mail: je.mathnerd15@gmail.com
Tuning: Drop D

Intro: (x2)

G|----------------|----------------|----------------|----------------|
D|----------------|----------------|----------------|----------------|
A|2-----2-2-------|2-----2-2---4---|2-----2-2-------|2-----2-2---4---|
D|----------------|----------------|----------------|----------------|

G|----------------|----------------|----------------|----------------|
D|----------------|----------------|----------------|----------------|
A|----------------|------------4---|----------------|----------4-4-4-|
D|6-----6-6-------|4-----4-4-------|6-----6-6-------|4-----4-4-------|

Verse: Intro (x2)

Chorus: (x4)

G|----------------|----------------|----------------|----------------|
D|----------------|----------------|----------------|----------------|
A|----------------|----------------|----------------|----------------|
D|2-----2-2-----2-|4-----4-4-----4-|1-----1-1-----1-|6-----6-4-----4-|

Break: Intro (x2)

Verse: (x2)

Chorus: (x10)



| /  slide up
| \  slide down
| h  hammer-on
| p  pull-off
| ~  vibrato
| +  harmonic
| x  Mute note

Добавлено: 05.12.2013
Другие материалы по этой песне:
  • Аккорды и текст

Страница создана 05.12.2013
http://primanota.ru/craft-spells/leave-my-shadow-chords.htm
Привет, Гость.
Предлагаем пройти революционный курс по гитаре.
Подарок от PrimaNota.Ru, забирай!