PrimaNota.ru - самый крупный в мире бесплатный архив песенных текстов, аккордов, табулатур и нот


Craft Spells - From The Morning Heat - бас-таба, видео

Регистрация Запомнить меня
Войти через:  Facebook Google Twitter Vk Yandex Mail.ru

Craft Spells - From The Morning Heat - бас-таба, видео

Печатать
Просмотров: 78
Уроки эстрадного вокала в Санкт-Петербурге
-----------------------------------------------------------------
From the Morning Heat - Craft Spells
-----------------------------------------------------------------
Tabbed By: Madrone6
e-mail: je.mathnerd15@gmail.com
Tuning: Standard

Intro, Verse, & Chorus:

G|----------------|----------------|----------------|--------------|
D|----------------|----------------|----------------|--------------|
A|5---5---5-7-5---|----------------|----------------|--------------|
E|--------------3-|3-3-3-3-3-3-3-3-|3-3-3-3-3-3-3-3-|5---5---5-7-5-|

G|----------------|----------------|-------------------------------|
D|----------------|----------------|-------------------------------|
A|----------------|----------------|-------------------------------|
E|3-3-3-3-3-3-3-3-|3-3-3-3-3-3-3-3-|

Bridge:

G|----------------|----------------|----------------|
D|----------------|----------------|----------------|
A|2-----2-2---5---|----------------|----------------|
E|----------------|3-----3-3-----3-|3-----3-3---5---| (x4)

G|----------------|
D|----------------|
A|----------------|
E|5-5-5-5-5-5-5-5-| (x2)



| /  slide up
| \  slide down
| h  hammer-on
| p  pull-off
| ~  vibrato
| +  harmonic
| x  Mute note
Добавлено: 25.02.2014
Другие материалы по этой песне:
  • Аккорды и текст

Страница создана 25.02.2014
http://primanota.ru/craft-spells/from-the-morning-heat-chords.htm
Привет, Гость.
Предлагаем пройти революционный курс по гитаре.
Подарок от PrimaNota.Ru, забирай!