PrimaNota.ru - самый крупный в мире бесплатный архив песенных текстов, аккордов, табулатур и нот


Craft Spells - Beauty Above All - бас-таба, видео

Регистрация Запомнить меня
Войти через:  Facebook Google Twitter Vk Yandex Mail.ru

Craft Spells - Beauty Above All - бас-таба, видео

Печатать
Просмотров: 145
Уроки эстрадного вокала в Санкт-Петербурге
-----------------------------------------------------------------
Beauty Above All - Craft Spells
-----------------------------------------------------------------
Tabbed By: Madrone6
e-mail: je.mathnerd15@gmail.com
Tuning: Standard

Intro, Verse, & Chorus:

G|----------------|----------------|----------------|----------------|
D|----------------|----------------|----------------|----------------|
A|--------------8-|--8-8-8---8-8-8-|6---6-6-6-6-6-6-|--6-6-8---8-8---|
E|6---6-6-6-8-----|----------------|----------------|----------------|

Bridge:

G|----------------|----------------|----------------|----------------|
D|----------------|----------------|8---8---8-8-----|----------------|
A|----------5---8-|--8-8-8---8-8---|--------------6-|--6-6-6---6-6-5-|
E|8---8-8-8-------|----------------|----------------|----------------| (x2)

G|----------------|----------------|--------------5-|----------------|
D|----------------|----------------|8---8---8-8-----|----------------|
A|----------5---8-|--8-8-8---8-8---|----------------|--6-6-6---6-6-5-|
E|8---8-8-8-------|----------------|----------------|----------------| (x1)

G|----------------|----------------|----------------|----------------|
D|----------------|----------------|8---8---8---8-8-|8-8-8-8-8-8-8-8-|
A|----------5---8-|--8-8-8---8-8---|----------------|----------------|
E|8---8-8-8-------|----------------|----------------|----------------| (x1)



| /  slide up
| \  slide down
| h  hammer-on
| p  pull-off
| ~  vibrato
| +  harmonic
| x  Mute note

Добавлено: 09.02.2014
Другие материалы по этой песне:
  • Аккорды и текст

Страница создана 09.02.2014
http://primanota.ru/craft-spells/beauty-above-all-chords.htm
Привет, Гость.
Предлагаем пройти революционный курс по гитаре.
Подарок от PrimaNota.Ru, забирай!