PrimaNota.ru - самый крупный в мире бесплатный архив песенных текстов, аккордов, табулатур и нот


Cradle Of Filth - Truth And Agony - таба, видео

Регистрация Запомнить меня
Войти через:  Facebook Google Twitter Vk Yandex Mail.ru

Cradle Of Filth - Truth And Agony - таба, видео

Печатать
Просмотров: 157
truth and agony
dgcfad *=palm mute,///=tremelo picked

Riff A 0:21-0:41,1:52-2:12,3:13-3:33----------|
----------------------------------------------|
----------------------------------------------|
----------------------------------------------|
-*--------*----*----*---*---****7-------------|
///-----///----///-///-///--55555-****-7------|
-0-------7-----6---7---6----------6666-5------|


--------------------------------------------|
--------------------------------------------|
--------------------------------------------|
-*----*----*----*---*-----------------------|
///--///--///--///-///----7-6-----7-9-------|
0-----7----6---7----6---8-----7-8-----10----|


Riff B 0:41-1:02,2:13-2:32,
------------------------------------------|
------------------------------------------|
------------------------------------------|
9-------9/10-9-------9-------7[7]---------|
7--****-7/8--7-****--7--****-5[5]-8[8]----|
7\-0000-7/8--7-0000--7\-0000-5[5]-6[6]----|


Riff C 1:11-1:32
-----------------------------------------------|
-----------------------------------------------|
-----------------------------------------------|
-9-7-------------------------------------------|
-----10-9-7---9--10--9--10--6---7--9--7--10--9-|
-----------------------------------------------|

---------------------------------------------------|
---------------------------------------------------|
---------------------------------10-9-7------------|
---------------------*-7-10-9-7--------10-9-7------|
7~--9--10--9--10-*-*-7---------10------------10-9--|
-----------------5-8-------------------------------|


Riff D 1:32-1:52,2:53-3:13,
---2----------------------------------------------------|
-----2--------------------------------------------------|
-------2------------------------------------------------|
---------[4]-----------------5****5****5**5****5****5---|
4--------------5-12-----4-11-33333333333333333333333333-|
2-----------0--3/10--0--2/9-----------------------------|

allnotes pm'd and///'d
-------------------------------------------|
-------------------------------------------|
-------------------------------------------|
-------------------------------------------|
-------------------------------------------|
6-------8----9----7----3-------------------|


Riff E 3:33-3:53,5:24-5:44

--------------------------------------------|
--------------pm'd**********************----|
--------------------------------------------|
9/---12-11-8--------------------------------|
7----10-9--6--------------------------------|
7----10-9--6--8-8-8-8-8-8-8-8-8-11-11-11----|

-------------------------------------------|
-------------------------------------------|
-------------------------------------------|
-------------------------9/---12-11-8------|
-------------------------7----10-9--6------|
8-8-8-8-8-8-7-7-7-4-4-4--7----10-9--6------|


--pm 5th string notes--------------------|
-----------------------------------------|
-----------------------------------------|
-10---9---8--5---4-----------------------|
---11--10--9--7---6--7--6--7-9-----------|
----------------------8--7---------------|


Riff F 3:53-4:13,
--------------------------------------|
--------------------------------------|
--------------------------------------|
--------------------------------------|
7---9--10--9--10--6---7--9--7--10--9--|
--------------------------------------|


------------------------------------|
------------------------------------|
-------------------------------7-5--|
------------------------7-5---------|
7---9--10--9--10--6---8-----9-------|
------------------------------------|

riff G 4:24-4:43
------------------------------------|
------------------------------------|
------------------------------------|
-9---8------------------------------|
-7---6---10---9---------------------|
-7---6---8----7---------------------|


Riff H
all notes tremelo picked 4:43-5:26
-------------------------------------------|
-------------------------------------------|
-------------------------------------------|
-------------------------------------------|
-7---9--10-9-10-6--7-9-797-6-7-------------|
-------------------------------8---10--11--|


------------------------------------------|
------------------------------------------|
------------------------------------------|
------------------------------------------|
------------------------------------------|
10---11--7-8--10-8-10-8--7--5-------------|


after 2nd time
--------------------------------------------------------|
--------------------------------------------------------|
--------------------------------------------------------|
7--9--10-9-10-6-7-9-797-6-7-----------------------------|
----------------------------8--10-8-10-7--8-10-8108-7-8-|
--------------------------------------------------------|
Добавлено: 06.04.2012
Другие материалы по этой песне:
  • Аккорды и текст

Страница создана 06.04.2012
http://primanota.ru/cradle-of-filth/truth-and-agony-chords.htm
Привет, Гость.
Предлагаем пройти революционный курс по гитаре.
Подарок от PrimaNota.Ru, забирай!