PrimaNota.ru - самый крупный в мире бесплатный архив песенных текстов, аккордов, табулатур и нот


Cradle Of Filth - This Fetid Dank Oasis - таба, видео

Регистрация Запомнить меня
Войти через:  Facebook Google Twitter Vk Yandex Mail.ru

Cradle Of Filth - This Fetid Dank Oasis - таба, видео

Печатать
Просмотров: 112
Song: This Fetid, Dank Oasis
Album: A Pungent Sexual Miasma
Artist: Cradle of Filth
Year: 1992

NOTES:
If you have any question or want to talk to me about anything then email me at 
xfunereal@yahoo.com or
message me on the official Cradle of Filth website. My username is Ciraxos.
One part of the song is really hard to hear. I'll tell you which one when it comes to it.
When I show what times the parts occur I am using the track from:

http://www.youtube.com/watch?v=fllNmyx7-vo

LEGEND

. = Palm Mute
/ = Slide Up
\ = Slide Down
~ = Vibrato
h = hammer-on
p = pull-off
^ = bend
br= bend and release
# = pinch harmonic
* = tremolo pick

Tuning: I always have trouble knowing what tuning my guitar is in.
My tuner is fucked, but it says its in Eb. I'm pretty sure it is a full step down.


Intro (Dani and Jon making noises at each other)
      
    0:08      
|------------------------------------------------|
|------------------------------------------------|
|------------------------------------------------|
|--2----------8-------5---2----------8-------5---|
|--2----------8-------5---2----------8-------5---|
|--0------0-0-6---0-0-3---0------0-0-6---0-0-3---|
          . .     . .            . .     . .
Main Riff
   
   0:24
|------------------------------------------------|
|------------------------------------------------|
|------------------------------------------------|
|--2---------------------------------8-------5---|
|--2-----1----------1--------3#------8-------5---|
|--0---0---3-3br--3---1-1br------0-0-6---0-0-3---|
       .          .              . .     . .

Main Riff pt. 2

   0:39
|----------------------------------------------------------------------------------|
|----------------------------------------------------------------------------------|
|----------------------------------------------------------------------------------|
|--2-------------------------------------------------------------------------------|
|--2------------------------------------------7---8-7--7-7-------------------------|
|--0------0-7-7----7--8----7--7h8-8h10--10-10--------------10-10-8-8----8-8--7-8-7-|
          .
Riff 2

   1:09
|-------------------------------------------------|
|-------------------------------------------------|
|-------------------------------------------------|
|--5-----------5-----------5-----------5----------|
|--5-----------5-----------5-----------5----------|
|--3-3-3-3~-2~-3-3-3-3~-2~-3-3-3-3~-2~-3-3-3-3~-2~|
     . .         . .         . .         . .
Riff 3

   1:22
|------------------------------------------------|
|------------------------------------------------|
|------------------------------------------------|
|--3p2---------3p2-3--3--3p2---------3p2-3--3----|
|--3p2---------3p2-1--1--3p2---------3p2-1--1----|
|--1p0-0-0-0-0-1p0-------1p0-0-0-0-0-1p0---------|
       . . . .               . . . .

Next Riff

   1:42
|------------------------------------------------|
|------------------------------------------------|
|------------------------------------------------|
|-3---------3---------3---------3------3---------|
|-1--1-1----1--1-1----1--1-1----1--1-1-3---------|
|--------3~--------3~--------3~--------1---------|
     . .       . .       . .       . .

Riff 4

   2:07
|------------------------------------------------|
|------------------------------------------------|
|------------------------------------------------|
|--3*---2*---5*---4*-----------------------------|
|----------------------3*---2*-------------------|
|--------------------------------3*---2*---------|


Riff 5

   2:16
|------------------------------------------------|
|--6--6-5--8/8--8-7------------------------------|
|--5--5-4--4/7--7-6--5--5-4--4-------------------|
|--3--3-2--2/5--5-4--5--5-4--4-5--5-4------------|
|--------------------3--3-2--2-5--5-4------------|
|------------------------------3--3-2------------|
      .         .       .         .

Riff 6

  2:25
|------------------------------------------------|
|------------------------------------------------|
|--2-----------------3----3-2---2----------------|
|--2-----3-----2-----3----3-2---2-3---3-2--2-3-3-|
|--0-----3-----2-----1----1-0---0-3---3-2--2-1-1-|
|--------1-----0------------------1---1-0--0-----|

Solo

   3:12
|---------------------------------------------------------------------------|
|---------------------------------------------------------------------------|
|---------------------------------9--10-9--9-9------------------------------|
|--9--9-9-9--9-9-10-9--9--10--12---------------12-12-10-10--10-10--9-10-9---|
|---------------------------------------------------------------------------|
|---------------------------------------------------------------------------|

|---------------------10/12-12-12-12-12-12-10h12p10--------|
|---------------------------------------------------12-12--|
|--12---14-12-14/16----------------------------------------|
|----------------------------------------------------------|
|----------------------------------------------------------|
|----------------------------------------------------------|

|----------------------------------------------------------------|
|--13h15p13p12h13p12-13h15p13p12h13p12-13h15p13p12h13p12-12--12--|
|----------------------------------------------------------------|
|----------------------------------------------------------------|
|----------------------------------------------------------------|
|----------------------------------------------------------------|

|--------------------------------------------|
|------15-----15--12h15p12----12-15-15br-15^-|
|--12^----12^--------------14----------------|
|--------------------------------------------|
|--------------------------------------------|
|--------------------------------------------|

Post Solo

   3:40
|---------------------------------------------------------------------|
|---------------------------------------------------------------------|
|---9-9--7--9-9--7--9-9--7-9--9--7--9\--9-9--7--9-9--7--9-9--7--9-9\--|
|---9-9--7--9-9--7--9-9--7-9--9--7--9\--9-9--7--9-9--7--9-9--7--9-9\--|
|---7-7--5--7-7--5--7-7--5-7--7--5--7\--7-7--5--7-7--5--7-7--5--7-7\--|
|---------------------------------------------------------------------|

Riff 7

   4:08
|------------------------------------------------------------|
|------------------------------------------------------------|
|------------------------------------------------------------|
|--2------------------3-3--3-3--2------------------3-3--3-3--|
|--2------------------3-3--3-3--2------------------3-3--3-3--|
|--0-0000000000000000-1-1--1-1--0-0000000000000000-1-1--1-1--|
    [................]           [................]
        ^Sixteen^                    ^Sixteen^
|------------------------------------------------------------|
|------------------------------------------------------------|
|------------------------------------------------------------|
|--2------------------3-3--3-3--2------------------3---------|
|--2------------------3-3--3-3--2------------------3---------|
|--0-0000000000000000-1-1--1-1--0-0000000000000000-1---------|
    [................]           [................]
        ^Sixteen^                    ^Sixteen^
Riff 8
This is the riff that I talked about earlier. I can't really decifer it. It's basically just
muted notes. I really don't know what it is. I'm pretty much guessing.

   4:17
|---------------------------------------------------------------------------|
|---------------------------------------------------------------------------|
|---------------------------------------------------------------------------|
|---------------------------------------------------------------------------|
|---------------------------------------------------------------------------|
|--0000333366660000333300006666111100003333666600003333000066661111---------|
   ................................................................

Outro

   4:53
|--------------------------------------------------------------|
|--------------------------------------------------------------|
|--------------------------------------------------------------|
|--2-------------------------3--2-------------------------3-2--|
|--2-----3-2---------3-2-----3--2-----3-2---------3-2-----3-2--|
|--0-0-0-----0-5p0-0-----0-0-1--0-0-0-----0-5p0-0-----0-0-1-0--|
     . .     .     .     . .
Добавлено: 23.02.2012
Другие материалы по этой песне:
  • Аккорды и текст

Страница создана 23.02.2012
http://primanota.ru/cradle-of-filth/this-fetid-dank-oasis-chords.htm
Привет, Гость.
Предлагаем пройти революционный курс по гитаре.
Подарок от PrimaNota.Ru, забирай!