PrimaNota.ru - самый крупный в мире бесплатный архив песенных текстов, аккордов, табулатур и нот


Cradle Of Filth - The Persecution Song - текст песни, таба, видео

Регистрация Запомнить меня
Войти через:  Facebook Google Twitter Vk Yandex Mail.ru

Cradle Of Filth - The Persecution Song - текст песни, таба, видео

Печатать
Просмотров: 233
GT.1 riff A   0:11-0:41, 1:22-1:53,4;14-4:34--------|
--D-G-C-F-A-D---------------------------------------|
----------------------------------------------------|
-------11-------------9----12----------------9------|
----9------9--9-----7---10----10-----------7--------|
-7---------------7---------------12--12--7----------|
----------------------------------------------------|

-------------------------------------------------------|
----------------------------------------__-------------|
-----11----------9----12---------------/--\------------|
---9----9--9---9---10----10--------10-9-10-9--7--------|
-7-----------7--------------12--12---------------------|
-------------------------------------------------------|

gt.2 {rythm} riff B -all palm muted[on cd at same times as riff A
--------------------------------------------|
--------------------------------------------|
--------------------------------------------|
------------------5-5-5-5--7-7-7-7----------|
-2-2-2-2-2-2-2-2--3-3-3-3--5-5-5-5----------|
-0-0-0-0-0-0-0-0----------------------------|

riff C both guitars on cd at 0:42-1:01,1:52-2:12,4:34-4;54-|
--------------------------------------]--------------------|
---------------------2 times----------]-riff D-------------|
--------------------------------------]--------------------|
--11-9-8--------------12--11-10-------]--------------------|
7-8--7-6--7-9---11-7--10--9--8--7-9-11]-7--9---11----------|
5-8--7-6--5-7---8--5--10--9--8--5-7-8-]-5--7---8-----------|

riff E both guitars on cd at 1:02-1:22,2;13-2:34,4:54-------------------|end
------------------------------------------------------------------------|
-0's pm'd --------------------------2and3/4ths times then riffD---------|
----------____-------------___-------------___------_____------_---_----|
---------/----\-----------/---\-----------/---\----/-----\----/-\-/-\---|
--------10-9-7-9---------9-7-6-7--------10-9-7-9--12-10-9-10-10-9\7-9---|
-000000-----------000000---------000000---------------------------------|

riff F both guitars 2:57-3:13
--------------]-----------------------------------|
--------------]-----------------------------------|
--------------]-----------------------------------|
---------11---]----------11----7--6--7------------|
9---5----9-/--]-9---5----9-----5--4--5--8---9---5-|
7---3----9-/--]-7---3----9-----5--4--5--6---7---3-|

Gt.1 rythm riff G 3:13-3:33 fast picked in 16th notes  played 2 times
---------------------------------------------------------------------------|
---------------------------------------------------------------------------|
---------------------------------------------------------------------------|
---------------------------------------------------------------------------|
-7---9---10---12-10-12-10-9-10--7---9-10---9-10---9-10--12-10-12-10--9--10-|
---7---7----7----------------------------8------7--------------------------|

GT.2 riff G 3:13-3:33 played 4 times
----------------------------------------------------------|
-------------------10-12----------------10-12-----12-13---|
--9----11-12----9---------9---11-12--9---------9----------|
----------------------------------------------------------|
----------------------------------------------------------|
----------------------------------------------------------|

Riff H both guitars 3:34-3:44 the 7's 12 notes each palm muted
-------------------------------------------------|
-------------------------------------------------|
-------------------------------------------------|
----------7^9-----------7^9---9^10---------------|
-7-9^10-7------7-9^10-7-----7--------------------|
-------------------------------------------------|

Riff I both guitars 3: 44- 3:54 picked fast in 16th notes played 2 times
------------------------------|
------------------------------|
-----------------------11-12--|
-9----11----12----14---9--10--|
-7----9-----10----12----------|
------------------------------|

Riff J both guitars 3:54-4:14 played 2 times
-----------------------------------------------------------|
-----------------------------------------------------------|
-------------------------pm--------------------------------|
---------------------7-------------------------------------|
-2---10--9--7--5-----5----22--10--9--2-----10--9---7---5---|
-0---8---7--5--3-----5----00--8---7--0-----8---7---5---3---|


----------------]-------------------------------------------------------|
----------------]-------------------------------------------------------|
-after 1st time--]----after second time---------------------------------|
--pm'd-----------]---7-7-7-7--------------------------------------------|
-33333333--------]---5-5-5-5--------------------------------------------|
-11111111--------]---5-5-5-5--------------------------------------------|
Добавлено: 09.05.2012
Другие материалы по этой песне:

Страница создана 09.05.2012
http://primanota.ru/cradle-of-filth/the-persecution-song-chords.htm
Привет, Гость.
Предлагаем пройти революционный курс по гитаре.
Подарок от PrimaNota.Ru, забирай!