PrimaNota.ru - самый крупный в мире бесплатный архив песенных текстов, аккордов, табулатур и нот


Cradle Of Filth - Siding With The Titans - таба, видео

Регистрация Запомнить меня
Войти через:  Facebook Google Twitter Vk Yandex Mail.ru

Cradle Of Filth - Siding With The Titans - таба, видео

Печатать
Просмотров: 93
CRADLE OF FILTH

SIDING WITH THE TITANS

DGCFAD


TABBED BY andherembrace




--------------------------------------------------------------------|
--------------------------------------------------------------------|
--------------------------------------------------------------------|
-9-9999-9-9999-9-9999-9-9999-9-8-8--9-9999-9-9999-9-99-9-8-8-8-6-6--|
-7-7777-7-7777-7-7777-7-7777-7\6-6--7-7777-7-7777-7-77-7\6-6-6\4-4--|
--------------------------------------------------------------------|

------------------------------------------------------------------|
------------------------------------------------------------------|
------------------------------------------------------------------|
-9-9999-9-9999-9-9999-9-9999-9-8-8--------------------------------|
-7-7777-7-7777-7-7777-7-7777-7\6-6-10---------111011--------------|
------------------------------------8-88888888-9\8-9-999999999999-|
                                      ********       ************

0:11
--------------------------------------------------------------------|
--------------------------------------------------------------------|
--------------------------------------------------------------------|
-9-9999-9-9999-9-9999-9-9999-9-8-8--9-9999-9-9999-9-99-9-8-8-8-6-6--|
-7-7777-7-7777-7-7777-7-7777-7\6-6--7-7777-7-7777-7-77-7\6-6-6\4-4--|
--------------------------------------------------------------------|

------------------------------------------------------------------|
------------------------------------------------------------------|
------------------------------------------------------------------|
-9-9999-9-9999-9-9999-9-9999-9-8-8--------------------------------|
-7-7777-7-7777-7-7777-7-7777-7\6-6-10---------111011--------------|
------------------------------------8-88888888-9\8-9-999999999999-|
                                      ********       ************


0:21

-------------------------------------------------------------------------|
-------------------------------------------------------------------------|
-------------------------------------------------------------------------|
-------------------------------------------------------------------------|
7777777777771070077777777777710700777777777777107007777999910101010109999|
-------------------------------------------------------------------------|

----------------------------------------------------------------|
----------------------------------------------------------------|
----------------------------------------------------------------|
----------------------------------------------------------------|
7777777777771070077777777777710700101010101010101010101010101010|
----------------------------------------------------------------|

---------------------------|
---------------------------|
---------------------------|
--------------777799999999-|
-9999-10101010-------------|
---------------------------|

--------------------------------------------------------------------------|
--------------------------------------------------------------------------|
--------------------------------------------------------------------------|
--------------------------------------------------------------------------|
-7777777777771070077777777777710700777777777777107007777999910101010109999|
--------------------------------------------------------------------------|

----------------------------------------------------------------|
----------------------------------------------------------------|
----------------------------------------------------------------|
----------------------------------------------------------------|
7777777777771070077777777777710700101010101010101010101010101010|
----------------------------------------------------------------|

--------------------------------------------|
--------------------------------------------|
--------------------------------------------|
--------------------------------------------|
-9999-101010101010-1212-1313131313131313----|
-------8-8-8-8-8-8-1010-1111111111111111----|



0:43
--------------------------------------------------------------------|
--------------------------------------------------------------------|
--------------------------------------------------------------------|
-9-9999-9-9999-9-9999-9-9999-9-8-8--9-9999-9-9999-9-99-9-8-8-8-6-6--|
-7-7777-7-7777-7-7777-7-7777-7\6-6--7-7777-7-7777-7-77-7\6-6-6\4-4--|
--------------------------------------------------------------------|

------------------------------------------------------------------|
------------------------------------------------------------------|
------------------------------------------------------------------|
-9-9999-9-9999-9-9999-9-9999-9-8-8--------------------------------|
-7-7777-7-7777-7-7777-7-7777-7\6-6-10---------111011--------------|
------------------------------------8-88888888-9\8-9-999999999999-|
                                      ********       ************


0:53

----------------------------------------------------------------|
----------------------------------------------------------------|
----------------------------------------------------------------|
----------------------------------------------------------------|
11---11--11-11-11-10----10--10-10-8-7----7--7-7-7-7----7--7-7-7-|
-9-99-9---9--9--9--8-88--8---8--8-6-5-55-5--5-5-5-5-55-5--5-5-5-|

----------------------------------------------------------------|
----------------------------------------------------------------|
----------------------------------------------------------------|
----------------------------------------------------------------|
11---11--11-11-11-10----10--10-10-8-7----7--7-7-7-8----8--8-8-8-|
-9-99-9---9--9--9--8-88--8---8--8-6-5-55-5--5-5-5-6-66-6--6-6-6-|

----------------------------------------------------------------|
----------------------------------------------------------------|
----------------------------------------------------------------|
----------------------------------------------------------------|
11---11--11-11-11-10----10--10-10-8-7----7--7-7-7-7----7--7-7-7-|
-9-99-9---9--9--9--8-88--8---8--8-6-5-55-5--5-5-5-5-55-5--5-5-5-|



1:09
-------------------------------------------------------------|
-------------------------------------------------------------|
-------------------------------------------------------------|
-------------------------------------------------------------|
-------------------------------------------------------------|
-9-9-9-9-9-9-8-8-9-9-8-6-8-8-8-8-8-8-6-6-8-8-6-8-5-5-5-5-5-5-|

--------------------------------------|
--------------------------------------|
--------------------------------------|
--------------------------------------|
--------------------------------------|
-6-6-8-8-6-6-5-5-5-5-5-5-9-9-8-8-6-6--|

-------------------------------------------------------------|
-------------------------------------------------------------|
-------------------------------------------------------------|
-------------------------------------------------------------|
-------------------------------------------------------------|
-9-9-9-9-9-9-8-8-9-9-8-6-8-8-8-8-8-8-6-6-8-8-6-8-5-5-5-5-5-5-|

---------------------------------|
---------------------------------|
---------------------------------|
--------------6666666666666666---|
---------------------------------|
-5-5-5-5-5-5---------------------|



1:20

--------------------------------------------------------------|
--------------------------------------------------------------|
--------------------------------------------------------------|
-777777777777777710101010101010101010101010101010777777777777-|
--------------------------------------------------------------|
--------------------------------------------------------------|

-----------------------------------------------------------|
--------------------------------------__________-----------|
--------------------------------------)---------(----------|
-10101010999999999999999977777777777777777777777777777777--|
-----------------------------------------------------------|
-----------------------------------------------------------|

---------------------------|
---------------------------|
---------------------------|
-10-10-10-10------8-8-8----|
--8--8--8--8-8888-6-6-6----|
---------------------------|
             ****

1:31
--------------------------------------------------------------|
--------------------------------------------------------------|
--------------------------------------------------------------|
-7-7-7-7-7-7-7-7-7-7-7-7-10-10-10-10-10-10-10-10-10-10-10-10--|
--------------------------------------------------------------|
--------------------------------------------------------------|

-----------------------------------------------------------|
-----------------------------------------------------------|
-----------------------------------------------------------|
-7-7-7-7-7-7-7-7-7-7-7-7-10-10-10-9-9-9-9-9-9-9-9-9-9-9-9--|
-----------------------------------------------------------|
-----------------------------------------------------------|


-----------------------------------------------------------|
--------------___________----------------------------------|
--------------)---------(----------------------------------|
-77777777777777777777777777777777-10-10-10-10------8-8-8---|
-----------------------------------8--8--8--8-8888-6-6-6---|
-----------------------------------------------------------|
                                              ****


1:41

------------------------------------------------------------------|
------------------------------------------------------------------|
------------------------------------------------------------------|
------------------------------------------------------------------|
-5-4--4--7-5--5--8-7--7--8-7-8-7--5-4--4--7-5--5--8-7--7--8-7-8-7-|
-3-2--2--5-3--3--6-5--5--6-5-6-5--3-2--2--5-3--3--6-5--5--6-5-6-5-|


------------------------------------------------------------------|
------------------------------------------------------------------|
------------------------------------------------------------------|
------------------------------------------------------------------|
-5-4--4--7-5--5--8-7--7--8-7-8-7--5-4--4--7-5--5--8-7--7--8-7-8-7-|
-3-2--2--5-3--3--6-5--5--6-5-6-5--3-2--2--5-3--3--6-5--5--6-5-6-5-|


------------------------------------------------------------------|
------------------------------------------------------------------|
------------------------------------------------------------------|
------------------------------------------------------------------|
-5-4--4--7-5--5--8-7--7--8-7-8-7--5-4--4--7-5--5--8-7--7--8-7-8-7-|
-3-2--2--5-3--3--6-5--5--6-5-6-5--3-2--2--5-3--3--6-5--5--6-5-6-5-|


------------------------------------------------------------------|
------------------------------------------------------------------|
------------------------------------------------------------------|
------------------------------------------------------------------|
-5-4--4--7-5--5--8-7--7--8-7-8-7--5-4--4--7-5--5--8-7--7--8-7-8-7-|
-3-2--2--5-3--3--6-5--5--6-5-6-5--3-2--2--5-3--3--6-5--5--6-5-6-5-|



------------------------------------------------------------------|
------------------------------------------------------------------|
------------------------------------------------------------------|
------------------------------------------------------------------|
-5-4--4--7-5--5--8-7--7--8-7-8-7--5-4--4--7-5--5--8-7--7--8-7-8-7-|
-3-2--2--5-3--3--6-5--5--6-5-6-5--3-2--2--5-3--3--6-5--5--6-5-6-5-|




2:08

------------------------------------------|
------------------------------------------|
------------------------------------------|
---------6------6-5------5---3--3-3-3-2---|
-4-----4-4------4-3------3---1--1-1-1-0---|
-2-----2-4------4-3------3---1--1-1-1-0---|

------------------------------------------|
------------------------------------------|
------------------------------------------|
---------6------6-------------------------|
-4-----4-4------4--4--3--1--4--3--1-------|
-2-----2-4------4-------------------------|

------------------------------------------|
------------------------------------------|
------------------------------------------|
---------6------6-5------5---3--3-3-3-2---|
-4-----4-4------4-3------3---1--1-1-1-0---|
-2-----2-4------4-3------3---1--1-1-1-0---|

--------------------------------------------------|
--------------------------------------------------|
--------------------------------------------------|
---------6------6-5------5------------------------|
-4-----4-4------4-3------3------------------------|
-2-----2-4------4-3------3----6655555555333333----|
                              ****************



2:30

------------------------------------------------------------------|
------------------------------------------------------------------|
------------------------------------------------------------------|
------------------------------------------------------------------|
-5-4--4--7-5--5--8-7--7--8-7-8-7--5-4--4--7-5--5--8-7--7--8-7-8-7-|
-3-2--2--5-3--3--6-5--5--6-5-6-5--3-2--2--5-3--3--6-5--5--6-5-6-5-|


------------------------------------------------------------------|
------------------------------------------------------------------|
------------------------------------------------------------------|
------------------------------------------------------------------|
-5-4--4--7-5--5--8-7--7--8-7-8-7--5-4--4--7-5--5--8-7--7--8-7-8-7-|
-3-2--2--5-3--3--6-5--5--6-5-6-5--3-2--2--5-3--3--6-5--5--6-5-6-5-|



3:02
-------------------------------------------------------------------------|
-------------------------------------------------------------------------|
-------------------------------------------------------------------------|
-------------------------------------------------------------------------|
7777777777771070077777777777710700777777777777107007777999910101010109999|
-------------------------------------------------------------------------|

----------------------------------------------------------------|
----------------------------------------------------------------|
----------------------------------------------------------------|
----------------------------------------------------------------|
7777777777771070077777777777710700101010101010101010101010101010|
----------------------------------------------------------------|

---------------------------|
---------------------------|
---------------------------|
--------------777799999999-|
-9999-10101010-------------|
---------------------------|


-------------------------------------------------------------------------|
-------------------------------------------------------------------------|
-------------------------------------------------------------------------|
-------------------------------------------------------------------------|
7777777777771070077777777777710700777777777777107007777999910101010109999|
-------------------------------------------------------------------------|

----------------------------------------------------------------|
----------------------------------------------------------------|
----------------------------------------------------------------|
----------------------------------------------------------------|
7777777777771070077777777777710700101010101010101010101010101010|
----------------------------------------------------------------|

---------------------------|
---------------------------|
---------------------------|
--------------777799999999-|
-9999-10101010-------------|
---------------------------|



3:22

------------------------------------------------------------------|
------------------------------------------------------------------|
------------------------------------------------------------------|
-----------------8-8-8-8-7-7-6-5------------------8-8-8-7---------|
-2-2222-2--2-2-2-6-6-6-6-5-5-4-3--2-2222-2--2-2-2-6-6-6-5-5-5-4-4-|
-0-0000-0--0-0-0-6-6-6-6-5-5-4-3--0-0000-0--0-0-0-6-6-6-5-3-3-2-2-|


------------------------------------------------------------------|
------------------------------------------------------------------|
------------------------------------------------------------------|
-----------------8-8-8-8-7-7-5-5-12121212121212121212121212121111-|
-2-2222-2--2-2-2-6-6-6-6-5-5-3-3-1010101010101010101010101010-9-9-|
-0-0000-0--0-0-0-6-6-6-6-5-5-3-3----------------------------------|


-------------------------------------|
-------------------------------------|
-------------------------------------|
-------------------------------------|
101010101010-1212-1313131313131313---|
-8-8-8-8-8-8-1010-1111111111111111---|



3:33

--------------------------------------------------------------------|
--------------------------------------------------------------------|
--------------------------------------------------------------------|
-9-9999-9-9999-9-9999-9-9999-9-8-8--9-9999-9-9999-9-99-9-8-8-8-6-6--|
-7-7777-7-7777-7-7777-7-7777-7\6-6--7-7777-7-7777-7-77-7\6-6-6\4-4--|
--------------------------------------------------------------------|


------------------------------------------------------------------|
------------------------------------------------------------------|
------------------------------------------------------------------|
-9-9999-9-9999-9-9999-9-9999-9-8-8--------------------------------|
-7-7777-7-7777-7-7777-7-7777-7\6-6-10---------111011--------------|
------------------------------------8-88888888-9\8-9-999999999999-|
                                      ********       ************

3:44

--------------------------------------------------------------------|
--------------------------------------------------------------------|
--------------------------------------------------------------------|
-9------9------9------9------9-8-8--9------9------9----9-8-8-8-6-6--|
-7------7------7------7------7\6-6--7------7------7----7\6-6-6\4-4--|
--------------------------------------------------------------------|


------------------------------------------------------------------|
------------------------------------------------------------------|
------------------------------------------------------------------|
-9------9------9------9------9-8-8--------------------------------|
-7------7------7------7------7\6-6-10---------111011--------------|
------------------------------------8-88888888-9\8-9-999999999999-|
                                      ********       ************

3:55
----------------------------------------------------------------|
----------------------------------------------------------------|
----------------------------------------------------------------|
----------------------------------------------------------------|
11---11--11-11-11-10----10--10-10-8-7----7--7-7-7-7----7--7-7-7-|
-9-99-9---9--9--9--8-88--8---8--8-6-5-55-5--5-5-5-5-55-5--5-5-5-|

----------------------------------------------------------------|
----------------------------------------------------------------|
----------------------------------------------------------------|
----------------------------------------------------------------|
11---11--11-11-11-10----10--10-10-8-7----7--7-7-7-8----8--8-8-8-|
-9-99-9---9--9--9--8-88--8---8--8-6-5-55-5--5-5-5-6-66-6--6-6-6-|

----------------------------------------------------------------|
----------------------------------------------------------------|
----------------------------------------------------------------|
----------------------------------------------------------------|
11---11--11-11-11-10----10--10-10-8-7----7--7-7-7-7----7--7-7-7-|
-9-99-9---9--9--9--8-88--8---8--8-6-5-55-5--5-5-5-5-55-5--5-5-5-|

----------------------------------------------------------------|
----------------------------------------------------------------|
----------------------------------------------------------------|
----------------------------------------------------------------|
11---11--11-11-11-10----10--10-10-8-7----7--7-7-7-8----8--8-8-8-|
-9-99-9---9--9--9--8-88--8---8--8-6-5-55-5--5-5-5-6-66-6--6-6-6-|



4:31

-------------------|
-------------------|
-------------------|
-6666666666666666--|
-------------------|
-------------------|

--------------------------------------------------------------|
--------------------------------------------------------------|
--------------------------------------------------------------|
-777777777777777710101010101010101010101010101010777777777777-|
--------------------------------------------------------------|
--------------------------------------------------------------|

-----------------------------------------------------------|
--------------------------------------__________-----------|
--------------------------------------)---------(----------|
-10101010999999999999999977777777777777777777777777777777--|
-----------------------------------------------------------|
-----------------------------------------------------------|

---------------------------|
---------------------------|
---------------------------|
-10-10-10-10------8-8-8----|
--8--8--8--8-8888-6-6-6----|
---------------------------|
             ****

--------------------------------------------------------------|
--------------------------------------------------------------|
--------------------------------------------------------------|
-7-7-7-7-7-7-7-7-7-7-7-7-10-10-10-10-10-10-10-10-10-10-10-10--|
--------------------------------------------------------------|
--------------------------------------------------------------|

-----------------------------------------------------------|
-----------------------------------------------------------|
-----------------------------------------------------------|
-7-7-7-7-7-7-7-7-7-7-7-7-10-10-10-9-9-9-9-9-9-9-9-9-9-9-9--|
-----------------------------------------------------------|
-----------------------------------------------------------|


-----------------------------------------------------------|
--------------___________----------------------------------|
--------------)---------(----------------------------------|
-77777777777777777777777777777777-10-10-10-10------8-8-8---|
-----------------------------------8--8--8--8-8888-6-6-6---|
-----------------------------------------------------------|
                                              ****

------------------------------------------------------------------|
------------------------------------------------------------------|
------------------------------------------------------------------|
------------------------------------------------------------------|
-5-4--4--7-5--5--8-7--7--8-7-8-7--5-4--4--7-5--5--8-7--7--8-7-8-7-|
-3-2--2--5-3--3--6-5--5--6-5-6-5--3-2--2--5-3--3--6-5--5--6-5-6-5-|


------------------------------------------------------------------|
------------------------------------------------------------------|
------------------------------------------------------------------|
------------------------------------------------------------------|
-5-4--4--7-5--5--8-7--7--8-7-8-7--5-4--4--7-5--5--8-7--7--8-7-8-7-|
-3-2--2--5-3--3--6-5--5--6-5-6-5--3-2--2--5-3--3--6-5--5--6-5-6-5-|
Добавлено: 23.06.2013
Другие материалы по этой песне:
  • Аккорды и текст

Страница создана 23.06.2013
http://primanota.ru/cradle-of-filth/siding-with-the-titans-chords.htm
Привет, Гость.
Предлагаем пройти революционный курс по гитаре.
Подарок от PrimaNota.Ru, забирай!