PrimaNota.ru - самый крупный в мире бесплатный архив песенных текстов, аккордов, табулатур и нот


Cradle Of Filth - Shat Out Of Hell - текст песни, таба, видео

Регистрация Запомнить меня
Войти через:  Facebook Google Twitter Vk Yandex Mail.ru

Cradle Of Filth - Shat Out Of Hell - текст песни, таба, видео

Печатать
Просмотров: 196
i tabbed the main parts of the song, not in exact order, you can figure out where to place them.

D----------------------------------------------]
A----------------------------------------------]  main riff
F-9~~~---8~-4-7-8---11~-9-11--12--9-8-11-9-----]
C-9~~~---8~-4-7-8---11~-9-11--12--9-8-11-9-----]     
G-7~~~---6~-2-5-6---9~--7--9--10--7-6--9-7-----]
C----------------------------------------------]

D---------------------------------]
A---------------------------------]
F-----------------7---7--6--------]
C--4-3-4-5-4-3-2--7-4-7--6-(4-3-2)]  other main riff
G--4-3-4-5-4-3-2--5-4-5--4-(4-3-2)]
C--4-3-4-5-4-3-2----4------(4-3-2)]

D----------------]
A----------------]
F----------------]
C--9-8-9-7-5-7---] 
G----------------]
C----------------]

D----------------]
A----------------]
F----------------] breakdown riff
C--8-8-7-8-10-11-]
G--8-8-7-8-10-11-]
C--8-8-7-8-10-11-]
Добавлено: 12.06.2012
Другие материалы по этой песне:

Страница создана 18.03.2012
http://primanota.ru/cradle-of-filth/shat-out-of-hell-chords.htm
Привет, Гость.
Предлагаем пройти революционный курс по гитаре.
Подарок от PrimaNota.Ru, забирай!