PrimaNota.ru - самый крупный в мире бесплатный архив песенных текстов, аккордов, табулатур и нот


Cradle Of Filth - Rise Of The Pentagram - текст песни, таба, видео

Регистрация Запомнить меня
Войти через:  Facebook Google Twitter Vk Yandex Mail.ru

Cradle Of Filth - Rise Of The Pentagram - текст песни, таба, видео

Печатать
Просмотров: 260
Уроки эстрадного вокала в Санкт-Петербурге
Song: Rise of The Pentagram
Artist: Cradle of Filth
Album: Thornography

Tabbed by: Josh

Email: MetalManiacal666@aol.com

Tuning: D,A,D,G,B,E

this is a pretty sweet instrumental.. hope u enjoy as much as i did..

Riff 1
Both Guitars
e|-------------------------------------------------------------------------|----------|
B|-------------------------------------------------------------------------|----------|
G|-------------------------------------------------------------------------|----------|
d|-3xx3xx3x3xx3x6\5-----------------3xx3xx3x3xx3x6\5---------------3-------|----------|
A|-1xx1xx1x1xx1x4\3-3xx3xx3x3xx3xx3-1xx1xx1x1xx1x4\3-3xx3xx3-4-3-1---4-3-0-|-88\0-----|
D|------------------3xx3xx3x3xx3xx3------------------3xx3xx3---------------|-88\0-----|
                                           repeat 4x but at the end of 4 rep play ^  

(keyboard bridge)     

e|---------------6-----6-8-8-9-8-6-6-8---6---------| 
B|-6-8-9-8-6-8-9---8-9------6-6-6-6----9---8-9-6-8-|
G|--5-5-5-5----------------------------------------|
d|-------------------------------------------------|
A|-------------------------------------------------|
D|-------------------------------------------------|

Riff 2
Guitar 1 (play twice then pause for 1 repetition of Guitar 2 Riff 2, then play Riff 2A)
e|---------------------------------------------6~-6-8---6--------------------|
B|-6-----8-----9-8----9-11-9-8-6-----8-----9-8--------9---8-9-6-8------------|
G|---5-5---5-5-----8~--8--8-8-8--5-5---5-5-----------------------------------|
d|---------------------------------------------------------------------------|
A|---------------------------------------------------------------------------|
D|---------------------------------------------------------------------------|

Riff 2 
Guitar 2
e|---------------------------------------------------------------------------|
B|---------------------------------------------------------------------------|
G|---------------------------------------------------------------------------|
d|---------------------------------------------------------------------------|
A|---------------------------------------------------------------------------|
D|-8---6-8---6-8-1---3-4-1---3-4-8---6-8-11-10-6-1---3-4-1---3-4-------------|
   tremolo picking--->

Riff 2A
Guitar 1
e|---------------------------------------------------------------------------|
B|---------------------------------------------------------------------------|
G|---------------------------------------------------------------------------|
d|---------------------------------------------------------------------------|
A|-4---3-4---3-4-6---8-9-6---8-9-4---3-4-8--6--4-6---8-9-6---8-9-------------|
D|---------------------------------------------------------------------------|
   tremolo picking--->


goes back to Riff 1 followed by riff 2 and 2A again

Transition
Guitar 1
D|-8--6-4--|

Guitar 2
A|-4--3-1--|

then..

Riff 3
Both Guitars (repeat 2X)
e|---------------------------------------------------------------------------|
B|---------------------------------------------------------------------------|
G|---------------------------------------------------------------------------|
d|------5-----------------------5--------------------------------------------|
A|-3--3-3--4-3---6-6-1111--3--3-3--4-1---6-1-4444----------------------------|
D|-3--3----4-3---6-6-1111--3--3----4-1---6-1-4444----------------------------|
                     xxx                     xxx 

Riff 4 
Both Guitars (repeat 4X)        
e|----------------------|-------|
B|----------------------|-------|
G|----------------------|-------|
d|----------------------|-------|
A|-6---4h6-4-3-0--6-0---|--6-6\-|
D|--------------------4-|--7-7\-|
                          (^play at end of 4th repetition)
Pause:

Riff 5
Both Guitars (repeat 3X)
e|-----------------------------------|
B|-----------------------------------|
G|-----------------------------------|
D|-----------2---5-0-8-0-5-0-8-0-----|
A|-4-1~--4-1-0-1-3-0-6-0-3-0-6-0-----|
E|-4-1~--4-1---1---------------------|

(back to Riff 3... then to Riff 1)

End
Добавлено: 22.04.2012
Другие материалы по этой песне:

Страница создана 04.03.2012
http://primanota.ru/cradle-of-filth/rise-of-the-pentagram-chords.htm
Привет, Гость.
Предлагаем пройти революционный курс по гитаре.
Подарок от PrimaNota.Ru, забирай!