PrimaNota.ru - самый крупный в мире бесплатный архив песенных текстов, аккордов, табулатур и нот


Cradle Of Filth - One Foul Step From The Abyss - текст песни, таба, видео

Регистрация Запомнить меня
Войти через:  Facebook Google Twitter Vk Yandex Mail.ru

Cradle Of Filth - One Foul Step From The Abyss - текст песни, таба, видео

Печатать
Просмотров: 136
Уроки эстрадного вокала в Санкт-Петербурге
cradle of filth One foul step from the abyss dgcfad

Riff A 0:21-0:42,1:25-1:46,3:55-4:16------------------------------|
------------------------------------------------------------------|
-------------///--------------------------------------------------|
-///-///-///-10--pm'd**********************************-----------|
-10--11--10--8--9---------11-11-11-11-10-10-10-10-10-10-9--9------|
-8---9---8------7-77777777------------------------------7--7------|
------------------------------------------------------------------|
cont.
-----------------------------------------------------|
-------------///-------------------------------------|
-///-///-///-10--------------------------------------|
-10--11--10--8--8-pm'd-8-****-8-****-----------------|
-8---9---8------7-7777-7-7777-7-7777--8-10-8-11------|
--------------------------------------6--8-6--9------|

Riff B semi-pm'd throughout.0:43-1:04,1:47-2:08,4:16--------------|end
------------------------------------------------------------------|
------------------------------------------------------------------|
----------------------------------------------------------5-4-----|
--------------2222--------------------------------3-2---3-----5---|
----4444333344----4444334433-)-----444433334444-4-----3-----------|
4444------------------------4--3333-------------------------------|

cont.
----------------------------------------------------------------------|
----------------------------------------------------------------------|ph
------------------------------------------5-4------10-9----9-10-9~----|
---------------2222---------------3-2---3-----5--8------10------------|
-----4444333344----4444334433-)-4-----3-------------------------------|
-4444------------------------4----------------------------------------|

Riff C all notes pm'd 1:04-1:25,2:07-2:28,3:34-3:55--------------|
-----------------------------------------------------------------|
-----------------------------------------------------------------|
-----------------------------------------------------------------|
--------99999999-------------------------------------------------|
----------------88888888999999996666666655555555-----------------|
66666666----------------------------------------8888777744443333-|

cont.
-------------------------------------------------------------------|
-------------------------------------------------------------------|
-------------------------------------------------------------------|
--------99999999---------------------------------------------------|
----------------888888889999999966666666555555558888666699998888---|
66666666-----------------------------------------------------------|

RiffD 2:29-2:50
----------------------------------------------------------------|
----------------------------------------------------------------|
----------------------------------------------------------------|
----12-12-12--12-11-119-9-119-8--5--5-5-5--5-4--4-4-4-----------|
-2--10-10-10--10-9--9-7-7-9-7-6--3--3-3-3--3-2--2-2-2-6-6-6-6---|
-0----------------------------------------------------4-4-4-4---|

cont.

-----------------------------------------------------------------|
-----------------------------------------------------------------|
-----------------------------------------------------------------|
----12-12-12--12-11-119-9-119-8--5--5-5-5--5-4--4-4-4--7-7-7-7---|
-2--10-10-10--10-9--9-7-7-9-7-6--3--3-3-3--3-2--2-2-2--5-5-5-5---|
-0---------------------------------------------------------------|


Riff E. 2:51-3:34
---------------------------------------------------------------------|
---------------------------------------------------------------------|
---------------------------------------------------------------------|
8-****-8-****-8-****-6-6-6--8-****-8-****-11-11-11--10-10-10---------|
6-6666-6-6666-6-6666-4-4-4--6-6666-6-6666-9--9--9---8---8-8----------|
---------------------------------------------------------------------|

cont.
----------------------------------------------------------------|
-----------------------------------------------_----------------|
----------------------------------------------/ \---------------|
8-****-8-****-8-****-6-6-6-----------------4-3-4-3-----3--------|
6-6666-6-6666-6-6666-4-4-4-4-****-3-****-----------4-1----------|
---------------------------2-2222-1-1111------------------------|
Добавлено: 03.03.2012
Другие материалы по этой песне:
  • Аккорды и текст

Страница создана 03.03.2012
http://primanota.ru/cradle-of-filth/one-foul-step-from-the-abyss-chords.htm
Привет, Гость.
Предлагаем пройти революционный курс по гитаре.
Подарок от PrimaNota.Ru, забирай!