PrimaNota.ru - самый крупный в мире бесплатный архив песенных текстов, аккордов, табулатур и нот


Cradle Of Filth - Nymphetamine jebzel deva fix - таба, видео

Регистрация Запомнить меня
Войти через:  Facebook Google Twitter Vk Yandex Mail.ru

Cradle Of Filth - Nymphetamine jebzel deva fix - таба, видео

Печатать
Просмотров: 103
Уроки эстрадного вокала в Санкт-Петербурге


Tuning: Drop C Low to High (CGCFAD)
Key: ~let ring
     . palm mute
    (vs) volume swell

Part A
Guitar 1 x4 Guitar 2x 6
D--------------------------------
A--------------------------------
F--------------------------------
C-0~------3~------8~---5---3---0~
G-0~------3~------8~---5---3---0~
C-0~------3~------8~---5---3---0~

Part B
Guitar 1 x2
D-----------------------------------------
A-6-5-6---6-5-6-5-6---6-5-6---6-5-6-5-6---
F-------7-----------7-------5-----------5-
C-----------------------------------------
G-----------------------------------------
C-----------------------------------------

D--------------------------------------------
A-6-5-6---6-5-6-5-6---6-5-6---6-5-6-5-6-8-6-5
F-------3-----------3-------2----------------
C--------------------------------------------
G--------------------------------------------
C--------------------------------------------

Part C
Guitar 1 and 2 x2
D------------------------------------------------
A------------------------------------------------
F------------------------------------------------
C-7-7-7-7-7-7-5-5-5-5-5-5-7-7-7-7-7-7-3-3-3-3-3-3
G-7-7-7-7-7-7-5-5-5-5-5-5-7-7-7-7-7-7-3-3-3-3-3-3
C-7-7-7-7-7-7-5-5-5-5-5-5-7-7-7-7-7-7-3-3-3-3-3-3
  . . . . . . . . . . . . . . . . . . . . . . . .
D------------------------------------------------
A------------------------------------------------
F------------------------------------------------
C-7-7-7-7-7-7-5-5-5-5-5-5-3-3-3-3-3-3-5-5-5-5-5-5
G-7-7-7-7-7-7-5-5-5-5-5-5-3-3-3-3-3-3-5-5-5-5-5-5
C-7-7-7-7-7-7-5-5-5-5-5-5-3-3-3-3-3-3-5-5-5-5-5-5
  . . . . . . . . . . . . . . . . . . . . . . . .

Part D
Guitar 1 x 2
D----------------------------------------------
A-------5-6-5-6p3--6-8-6-6h8p5--10-11-10-11-10-
F-5/7-7----------------------------------------
C----------------------------------------------
G----------------------------------------------
C----------------------------------------------

D------------
A-8--8-6-8-10
F------------
C------------
G------------
C------------

Part E
Guitar 1 x1
D------
A------
F------
C-10-10
G-10-10
C-10-10

Part F
Guitar 1 and 2 x3
D------------------------------
A------------------------------
F------------------------------
C-14~------13~------10~------11~
G-14~------13~------10~------11~
C-14~------13~------10~------11~

Part G
Guitar 1 and 2 x1
D------------------------------------
A------------------------------------
F------------------------------------
C-14~------13~------10~------11----12~
G-14~------13~------10~------11----12~
C-14~------13~------10~------11----12~(vs)

Part B x2
Part C x1
Part D x4
Part E x1
Part F x3
part G x1
(vs) x1
End Of Song


                                 

Добавлено: 09.09.2013
Другие материалы по этой песне:
  • Аккорды и текст

Страница создана 09.09.2013
http://primanota.ru/cradle-of-filth/nymphetamine-jebzel-deva-fix-chords.htm
Привет, Гость.
Предлагаем пройти революционный курс по гитаре.
Подарок от PrimaNota.Ru, забирай!