PrimaNota.ru - самый крупный в мире бесплатный архив песенных текстов, аккордов, табулатур и нот


Cradle Of Filth - Nymphetamine (album) - таба, видео

Регистрация Запомнить меня
Войти через:  Facebook Google Twitter Vk Yandex Mail.ru

Cradle Of Filth - Nymphetamine (album) - таба, видео

Печатать
Просмотров: 138
Band- Cradle Of Filth
Album- Nymphetamine

1.SATYRIASIS

Don't Know

2.GILDED C***

Down one whole step (DGCFAD)

Intro (Doubles up as Chorus):

D-----------------------------|
G-----------------------------|
C---------------------------5-|
F--4-4--5-5-5-5--4-4--5-5-5-5-|
A--4-4--5-5-5-5--4-4--5-5-5-3-|
D--2-2--3-3-3-3--2-2--3-3-3---|

Verse

D-----------------------------------------|
G-----------------------------------------|
C-------------8---------------------------|
F--5-5-5-5-------5--7--8--8-8-9-9-8-8-9-9-|
A--5-5-5-5----------------8-8-9-9-8-8-9-9-|
D--3-3-3-3----------------6-6-7-7-6-6-7-7-|

Chorus

Verse

Interlude

D------------------------------------------------------------------|
G-------------------8---------8----------10------------------------|
C---7--9-10-7--9-10---10-9-10----10-9-10----10-9-10----------------|
F------------------------------------------------------------------|
A------------------------------------------------------------------|
D------------------------------------------------------------------|

D-------------------------------------------------------------------|
G-------------------8---8-------------------------------------------|
C---7--9-10-7--9-10---5---9-7-9-10-9---------------------------4----|
F--------------------------------------5--4--5--4--5--4--5--4--4--4-|
A--------------------------------------5--4--5--4--5--4--5--4--2--4-|
D--------------------------------------3--2--3--2--3--2--3--2-----2-|

Interlude 2

D-------------------------------|
G-------------------------------|
C--------------------------5--4-|
F--4--4-5--4--4-5--4--4-5--5--4-|
A--4--4-5--4--4-5--4--4-5--3--2-|
D--2--2-3--2--2-3--2--2-3-------|

X2

Chorus

Interlude 1
Interlude 2

Chorus

3.NEMESIS

gtr1
---0---------------------|
---0---------------------|
-------------------------|
--------0------0---0-----|
-2--4-5--4-3-6---6-------|
-2--4-5--4-3-6---6-------|X3

gtr 2
after above riff once
--------------------|
--------------------|
-9-11-12-11-8-------|
--------------9-6---|
--------------------|
--------------------|X2

gtr1
---------------------------------------------------------------------------|
---------------------------------------------------------------------------|
---------------------------------------------------------------------------|
------------5-5-5-5-5-5-5-5-5----------------------------------------------|
-2-2-2-2-2-23-3-3-3-3-3-3-3-3-7-7-7-7-7-7-7-7-5-5-5-5-5-5-5-5-9-9999-9-9-9-|
-2-2-2-2-2-2------------------7-7-7-7-7-7-7-7-5-5-5-5-5-5-5-5-9-9999-9-9-9-|X2
                                                pm.     . .     .... . . .

gtr2
----------------------|
----------------------|
----------------------|
----------------------|
-7-7777-10-99-7/9\7---|
----------------------|X4

----------------------|
----------------------|
----------------------|
-7-7777-10-99-7/9\7---|
----------------------|
----------------------|X2

-------------------------------|
-------------------------------|
-------------------------------|
-------------------------------|
-5-5-5-5-5-5-5-5-9-9999-9-9-9--|
-5-5-5-5-5-5-5-5-9-9999-9-9-9--|
 pm.     . .       .... . . .

gtr2 repeats above 3 riffs

                                                  hold abit
-7-5-7-8-7-5-7-8-10-7-8-5-7-8-5-7-5-2-3-0-2-3-5-7-7-8-7-5-7-8-7-5-7--|
---------------------------------------------------------------------|
---------------------------------------------------------------------|
---------------------------------------------------------------------|
---------------------------------------------------------------------|
---------------------------------------------------------------------|
trem pik............................................................

gtr1
-----------------------------------------------------------------------|
-----------------------------------------------------------------------|
-----------------------------------------------------------------------|
--------5-5-5-5-5-5-5-5-5----------------------------------------------|
-2-2-2-23-3-3-3-3-3-3-3-3-7-7-7-7-7-7-7-7-5-5-5-5-5-5-5-5-9-9999-9-9-9-|
-2-2-2-2------------------7-7-7-7-7-7-7-7-5-5-5-5-5-5-5-5-9-9999-9-9-9-|X2
                                            pm.     . .     .... . . .

gtr2
----------------------|
----------------------|
----------------------|
----------------------|
-7-7777-10-99-7/9\7---|
----------------------|X4

----------------------|
----------------------|
----------------------|
-7-7777-10-99-7/9\7---|
----------------------|
----------------------|X2

-------------------------------|
-------------------------------|
-------------------------------|
-------------------------------|
-5-5-5-5-5-5-5-5-9-9999-9-9-9--|
-5-5-5-5-5-5-5-5-9-9999-9-9-9--|
 pm.     . .       .... . . .

gtr1
-----------------------|
-----------------------|
-----------------------|
-----------------------|
-2-4-5-8--2-4-5-3-6----|
-2-4-5-8--2-4-5-3-6----|

gtr1
----------------------------------------------------------------------|
----------------------------------------------------------------------|
----------------------------------------------------------------------|
----------------------------------------------------------------------|
-10-101010-10-101010-5-555-5-555-10-101010-10-101010-3-653531310135---|
-10-101010-10-101010-5-555-5-555-10-101010-10-101010-3----------------|X3
    pm....    ......   ...   ...    ......    ......

gtr1
-----------------------------------|
-----------------------------------|
-3-5-6-5-3-5---------3-5-6-5-------|
-------------3-4-1-4---------4-----|
-------------------------------7---|
-------------------------------7---|

-----------------5-6-8-6-8-9-11-8-9-8-5-6-|
-------4-6-7-6-7--------------------------|
-3-5-6------------------------------------|
------------------------------------------|
------------------------------------------|
------------------------------------------|

----------------------------------------------|
----------------------------------------------|
----------------------------------------------|
-3-3-3-7-7-4-4-4-4-4-7-7-3-3-3-7-7-4-4--------|
-1-1-1-5-5-2-2-2-2-2-5-5-1-1-1-5-5-2-2--------|
---------------------------------------3-2-5--|X4

gtr1
---0---------------------|
---0---------------------|
-------------------------|
--------0------0---0-----|
-2--4-5--4-3-6---6-------|
-2--4-5--4-3-6---6-------|X3

gtr 2
after above riff once
--------------------|
--------------------|
-9-11-12-11-8-------|
--------------9-6---|
--------------------|
--------------------|X2

gtr1
---------------------------------------------------------------------------|
---------------------------------------------------------------------------|
---------------------------------------------------------------------------|
------------5-5-5-5-5-5-5-5-5----------------------------------------------|
-2-2-2-2-2-23-3-3-3-3-3-3-3-3-7-7-7-7-7-7-7-7-5-5-5-5-5-5-5-5-9-9999-9-9-9-|
-2-2-2-2-2-2------------------7-7-7-7-7-7-7-7-5-5-5-5-5-5-5-5-9-9999-9-9-9-|X2
                                               pm.     . .     .... . . .

gtr2
----------------------|
----------------------|
----------------------|
----------------------|
-7-7777-10-99-7/9\7---|
----------------------|X4

----------------------|
----------------------|
----------------------|
-7-7777-10-99-7/9\7---|
----------------------|
----------------------|X2

-------------------------------|
-------------------------------|
-------------------------------|
-------------------------------|
-5-5-5-5-5-5-5-5-9-9999-9-9-9--|
-5-5-5-5-5-5-5-5-9-9999-9-9-9--|
 pm.     . .       .... . . .

gtr2 repeats above 3 riffs

                                                 hold abit
-7-5-7-8-7-5-7-8-10-7-8-5-7-8-5-7-5-2-3-0-2-3-5-7-7-8-7-5-7-8-7-5-7--|
---------------------------------------------------------------------|
---------------------------------------------------------------------|
---------------------------------------------------------------------|
---------------------------------------------------------------------|
---------------------------------------------------------------------|X2
trem pik............................................................

gtr1
-----------------------|
-----------------------|
-----------------------|
-----------------------|
-2-4-5-8--2-4-5-3-6----|
-2-4-5-8--2-4-5-3-6----|

gtr1
----------------------------------------------------------------------|
----------------------------------------------------------------------|
----------------------------------------------------------------------|
----------------------------------------------------------------------|
-10-101010-10-101010-5-555-5-555-10-101010-10-101010-3-653531310135---|
-10-101010-10-101010-5-555-5-555-10-101010-10-101010-3----------------|X3
    pm....    ......   ...   ...    ......    ......

gtr1
-----------------------------------|
-----------------------------------|
-3-5-6-5-3-5---------3-5-6-5-------|
-------------3-4-1-4---------4-----|
-------------------------------7---|
-------------------------------7---|

-----------------5-6-8-6-8-9-11-8-9-8-5-6-|
-------4-6-7-6-7--------------------------|
-3-5-6------------------------------------|
------------------------------------------|
------------------------------------------|
------------------------------------------|

----------------------------------------------|
----------------------------------------------|
----------------------------------------------|
-3-3-3-7-7-4-4-4-4-4-7-7-3-3-3-7-7-4-4--------|
-1-1-1-5-5-2-2-2-2-2-5-5-1-1-1-5-5-2-2--------|
---------------------------------------3-2-5--|X2

-----------------------------------------------|
-----------------------------------------------|
-----------------------------------------------|
-5-5-5-9-9-6-6-6-6-6-9-9-5-5-5-9-9-6-6---------|
-3-3-3-7-7-4-4-4-4-4-7-7-3-3-3-7-7-4-4---------|
---------------------------------------5-4-7---|X2

-----------------|
-5-7-8-7-4-------|
-----------4-2---|
-----------------|
-----------------|
-----------------|X2

-------------------------------------------|
-------------------------------------------|
-------------------------------------------|
-9-119-119-119-112-4-2-4-------------------|
-7-9-7-9-7-9-7-9-0-2-0-2-5-55-5-9-9-9-9/---|
-------------------------5-55-5-9-9-9-9/---|Keeps repeating until faded out

4.GABRIELLE

Don't Know

5.ABSINTHE WITH FAUST


C#||------|------|------|------|------|------|------|------|------|------|
G#||------|------|------|------|------|------|------|------|------|------|
E ||------|------|------|------|------|------|------|------|------|------|
B ||------|------|------|------|------|------|------|------|------|------|
F#||------|------|------|------|------|------|------|------|------|------|
C#||------|------|------|------|------|------|------|------|------|------|

------|------|------|------|------|------|--------------------|
------|------|------|------|------|------|--------------------|
------|------|------|------|------|------|--------------------|
------|------|------|------|------|------|--------------------|
------|------|------|------|------|------|--6------------8----|
------|------|------|------|------|------|--4------------6----|

-------------------|-------------------|-------------------|
-------------------|-------------------|-------------------|
-------------------|-------------------|-------------------|
-------------------|-------------------|--6----------------|
--9----------------|--4----------------|--4----------------|
--7----------------|--2----------------|-------------------|

--------------------|-------------------|-------------------|
--------------------|-------------------|-------------------|
--------------------|-------------------|-------------------|
--------------------|-------------------|-------------------|
--6------------8----|--9----------------|--4----------------|
--4------------6----|--7----------------|--2----------------|

-------------------|-------------------|------------------------|
-------------------|-------------------|------------------------|
-------------------|-------------------|------------------------|
--6----------------|--8----------------|--------------6----5----|
--4----------------|--6----------------|--------------4----3----|
-------------------|-------------------|------------------------|

-------------------|------------------------|-------------------|
-------------------|------------------------|-------------------|
-------------------|------------------------|-------------------|
--4----------------|--------------3----2----|-------------------|
--2----------------|--------------1----0----|--6----------------|
-------------------|------------------------|--4----------------|

------------------------|-------------------|-------------------|
------------------------|-------------------|-------------------|
------------------------|-------------------|-------------------|
------------------------|-------------------|-------------------|
--------------6----5----|--4----------------|--8----------------|
--------------4----3----|--2----------------|--6----------------|

------------------------|-----------------------|------------------------|
------------------------|-----------------------|------------------------|
------------------------|-----------------------|------------------------|
------------------------|-----------------------|------------------------|
--8----8--8----8--8--8--|--8----8--8----8--8----|--8----8--8----8--8--8--|
--6----6--6----6--6--6--|--6----6--6----6--6----|--6----6--6----6--6--6--|

------------------------|------------------------|-----------------------|
------------------------|------------------------|-----------------------|
------------------------|------------------------|-----------------------|
------------------------|------------------------|-----------------------|
--8----------6----------|--8----8--8----8--8--8--|--8----8--8----8--8----|
--6----6--8-----9--8----|--6----6--6----6--6--6--|--6----6--6----6--6----|

------------------------|------------------------|----------------------|
------------------------|------------------------|----------------------|
------------------------|------------------------|----------------------|
------------------------|------------------------|----------------------|
--8----8--8----8--8--8--|--8----------6----------|--5------5--5----5----|
--6----6--6----6--6--6--|--6----6--8-----9--8----|--3------3--3----3----|

----------------------|----------------------|-----------------------|
----------------------|----------------------|-----------------------|
----------------------|----------------------|-----------------------|
----------------------|----------------------|-----------------------|
--5------5--5----5----|--5------5--5----5----|--4-------4------------|
--3------3--3----3----|--3------3--3----3----|-----3~------3~---1----|

----------------------|----------------------|----------------------|
----------------------|----------------------|----------------------|
----------------------|----------------------|----------------------|
----------------------|----------------------|----------------------|
--5------5--5----5----|--5------5--5----5----|--5------5--5----5----|
--3------3--3----3----|--3------3--3----3----|--3------3--3----3----|

-----------------------|--------------------------|--------------------------|
-----------------------|--------------------------|--------------------------|
-----------------------|--------------9-----------|--------------9-----------|
-----------------------|--5h-8h-7--5--7--5--7--8--|--4h-7h-5--4--7--4--5--7--|
--4-------4------------|--3h-6h-5--3-----3--5--6--|--2h-5h-3--2-----2--3--5--|
-----3~------3~---1----|--------------------------|--------------------------|

--------------------------|---------------------------|
--------------------------|---------------------------|
--------------9-----------|---------------------------|
--5h-8h-7--5--7--5--7--8--|--8--10--8--7--5--4--------|
--3h-6h-5--3-----3--5--6--|--6--8---6--5--3--2--6--4--|
--------------------------|---------------------4--2--|

--------------------------|--------------------------|
--------------------------|--------------------------|
--------------9-----------|--------------9-----------|
--5h-8h-7--5--7--5--7--8--|--4h-7h-5--4--7--4--5--7--|
--3h-6h-5--3-----3--5--6--|--2h-5h-3--2-----2--3--5--|
--------------------------|--------------------------|

--------------------------|-------------------------|--------------------|
--------------------------|-------------------------|--------------------|
--------------9-----------|--3--------3--2--4--6/---|--------------------|
--5h-8h-7--5--7--5--7--8--|--1--5--5--1--0----------|--------------------|
--3h-6h-5--3-----3--5--6--|-----3--3----------------|--6------------8----|
--------------------------|-------------------------|--4------------6----|

-------------------|-------------------|-------------------|
-------------------|-------------------|-------------------|
-------------------|-------------------|-------------------|
-------------------|-------------------|--6----------------|
--9----------------|--4----------------|--4----------------|
--7----------------|--2----------------|-------------------|

--------------------|-------------------|-------------------|
--------------------|-------------------|-------------------|
--------------------|-------------------|-------------------|
--------------------|-------------------|-------------------|
--6------------8----|--9----------------|--4----------------|
--4------------6----|--7----------------|--2----------------|

-------------------|-------------------|------------------------|
-------------------|-------------------|------------------------|
-------------------|-------------------|------------------------|
--6----------------|--8----------------|--------------6----5----|
--4----------------|--6----------------|--------------4----3----|
-------------------|-------------------|------------------------|

-------------------|------------------------|-------------------|
-------------------|------------------------|-------------------|
-------------------|------------------------|-------------------|
--4----------------|--------------3----2----|-------------------|
--2----------------|--------------1----0----|--6----------------|
-------------------|------------------------|--4----------------|

------------------------|-------------------|-------------------|
------------------------|-------------------|-------------------|
------------------------|-------------------|-------------------|
------------------------|-------------------|-------------------|
--------------6----5----|--4----------------|--8----------------|
--------------4----3----|--2----------------|--6----------------|

------------------------|-----------------------|------------------------|
------------------------|-----------------------|------------------------|
------------------------|-----------------------|------------------------|
------------------------|-----------------------|------------------------|
--8----8--8----8--8--8--|--8----8--8----8--8----|--8----8--8----8--8--8--|
--6----6--6----6--6--6--|--6----6--6----6--6----|--6----6--6----6--6--6--|

------------------------|------------------------|-----------------------|
------------------------|------------------------|-----------------------|
------------------------|------------------------|-----------------------|
------------------------|------------------------|-----------------------|
--8----------6----------|--8----8--8----8--8--8--|--8----8--8----8--8----|
--6----6--8-----9--8----|--6----6--6----6--6--6--|--6----6--6----6--6----|

------------------------|------------------------|----------------------|
------------------------|------------------------|----------------------|
------------------------|------------------------|----------------------|
------------------------|------------------------|----------------------|
--8----8--8----8--8--8--|--8----------6----------|--5------5--5----5----|
--6----6--6----6--6--6--|--6----6--8-----9--8----|--3------3--3----3----|

----------------------|----------------------|-----------------------|
----------------------|----------------------|-----------------------|
----------------------|----------------------|-----------------------|
----------------------|----------------------|-----------------------|
--5------5--5----5----|--5------5--5----5----|--4-------4------------|
--3------3--3----3----|--3------3--3----3----|-----3~------3~---1----|

----------------------|----------------------|----------------------|
----------------------|----------------------|----------------------|
----------------------|----------------------|----------------------|
----------------------|----------------------|----------------------|
--5------5--5----5----|--5------5--5----5----|--5------5--5----5----|
--3------3--3----3----|--3------3--3----3----|--3------3--3----3----|

-----------------------|--------------------------|--------------------------|
-----------------------|--------------------------|--------------------------|
-----------------------|--------------9-----------|--------------9-----------|
-----------------------|--5h-8h-7--5--7--5--7--8--|--4h-7h-5--4--7--4--5--7--|
--4-------4------------|--3h-6h-5--3-----3--5--6--|--2h-5h-3--2-----2--3--5--|
-----3~------3~---1----|--------------------------|--------------------------|

--------------------------|---------------------------|
--------------------------|---------------------------|
--------------9-----------|---------------------------|
--5h-8h-7--5--7--5--7--8--|--8--10--8--7--5--4--------|
--3h-6h-5--3-----3--5--6--|--6--8---6--5--3--2--6--4--|
--------------------------|---------------------4--2--|

--------------------------|--------------------------|
--------------------------|--------------------------|
--------------9-----------|--------------9-----------|
--5h-8h-7--5--7--5--7--8--|--4h-7h-5--4--7--4--5--7--|
--3h-6h-5--3-----3--5--6--|--2h-5h-3--2-----2--3--5--|
--------------------------|--------------------------|

--------------------------|-------------------------|----------------------|
--------------------------|-------------------------|----------------------|
--------------9-----------|--3--------3--2--4--6/---|------------8~--------|
--5h-8h-7--5--7--5--7--8--|--1--5--5--1--0----------|-----------------9~---|
--3h-6h-5--3-----3--5--6--|-----3--3----------------|--6~------------------|
--------------------------|-------------------------|-------6~-------------|

----------------------|----------------------|----------------------|
----------------------|----------------------|----------------------|
------------3~---1~---|----------------------|----------------------|
----------------------|------------8~---9~---|----------------------|
-------1~-------------|-------6~-------------|-----------------4~---|
--2~------------------|--7~------------------|--2~-----2~-4~--------|

----------------------|----------------------|----------------------|
----------------------|----------------------|----------------------|
------------8~--------|------------3~---1~---|----------------------|
-----------------9~---|----------------------|------------8~---9~---|
--6~------------------|-------1~-------------|-------6~-------------|
-------6~-------------|--2~------------------|--7~------------------|

----------------------|----------------------|----------------------|
----------------------|----------------------|----------------------|
----------------------|------------8~--------|------------3~---1~---|
----------------------|-----------------9~---|----------------------|
-----------------4~---|--6~------------------|-------1~-------------|
--2~-----2~-4~--------|-------6~-------------|--2~------------------|

----------------------|----------------------|----------------------|
----------------------|----------------------|----------------------|
----------------------|----------------------|------------8~--------|
------------8~---9~---|----------------------|-----------------9~---|
-------6~-------------|-----------------4~---|--6~------------------|
--7~------------------|--2~-----2~-4~--------|-------6~-------------|

----------------------|----------------------|----------------------|
----------------------|----------------------|----------------------|
------------3~---1~---|----------------------|----------------------|
----------------------|------------8~---9~---|----------------------|
-------1~-------------|-------6~-------------|-----------------4~---|
--2~------------------|--7~------------------|--2~-----2~-4~--------|

-------------------|-------------------|-------------------|-------------------|
-------------------|-------------------|-------------------|-------------------|
-------------------|-------------------|-------------------|-------------------|
--3----------------|-------------------|--6----------------|-------------------|
--1----------------|--4----------------|--4----------------|--6----------------|
-------------------|--2----------------|-------------------|--4----------------|

-------------------|-------------------|-------------------|-------------------|
-------------------|-------------------|-------------------|-------------------|
-------------------|-------------------|-------------------|-------------------|
--3----------------|-------------------|--6----------------|-------------------|
--1----------------|--4----------------|--4----------------|--6----------------|
-------------------|--2----------------|-------------------|--4----------------|

-------------------|----------|----------|----------|----------|----------|
-------------------|----------|----------|----------|----------|----------|
-------------------|----------|----------|----------|----------|----------|
--3/---------------|----------|----------|----------|----------|----------|
--1/---------------|----------|----------|----------|----------|----------|
-------------------|----------|----------|----------|----------|----------|

----------|----------|-------------------|-------------------|
----------|----------|-------------------|-------------------|
----------|----------|-------------------|-------------------|
----------|----------|--3----------------|-------------------|
----------|----------|--1----------------|--4----------------|
----------|----------|-------------------|--2----------------|

-------------------|-------------------|-------------------|-------------------|
-------------------|-------------------|-------------------|-------------------|
-------------------|-------------------|-------------------|-------------------|
--6----------------|-------------------|--3----------------|-------------------|
--4----------------|--6----------------|--1----------------|--4----------------|
-------------------|--4----------------|-------------------|--2----------------|

-------------------|-------------------|--------------------|
-------------------|-------------------|--------------------|
-------------------|-------------------|--------------------|
--6----------------|-------------------|--------------------|
--4----------------|--6----------------|--6------------8----|
-------------------|--4----------------|--4------------6----|

-------------------|-------------------|-------------------|
-------------------|-------------------|-------------------|
-------------------|-------------------|-------------------|
-------------------|-------------------|--6----------------|
--9----------------|--4----------------|--4----------------|
--7----------------|--2----------------|-------------------|

--------------------|-------------------|-------------------|
--------------------|-------------------|-------------------|
--------------------|-------------------|-------------------|
--------------------|-------------------|-------------------|
--6------------8----|--9----------------|--4----------------|
--4------------6----|--7----------------|--2----------------|

-------------------|-------------------|------------------------|
-------------------|-------------------|------------------------|
-------------------|-------------------|------------------------|
--6----------------|--8----------------|--------------6----5----|
--4----------------|--6----------------|--------------4----3----|
-------------------|-------------------|------------------------|

-------------------|------------------------|-------------------|
-------------------|------------------------|-------------------|
-------------------|------------------------|-------------------|
--4----------------|--------------3----2----|-------------------|
--2----------------|--------------1----0----|--6----------------|
-------------------|------------------------|--4----------------|

------------------------|-------------------|-------------------|
------------------------|-------------------|-------------------|
------------------------|-------------------|-------------------|
------------------------|-------------------|-------------------|
--------------6----5----|--4----------------|--8----------------|
--------------4----3----|--2----------------|--6----------------|

-----------------------|---------------------|-----------------------|
-----------------------|---------------------|-----------------------|
-----------------------|---------------------|-----------------------|
-----------------------|---------------------|-----------------------|
--2----1---------1--2--|---------------------|--2----1---------1--2--|
------------4----------|--4--------7----6----|------------4----------|

----------------------|-----------------------|---------------------|
----------------------|-----------------------|---------------------|
----------------------|-----------------------|---------------------|
----------------------|-----------------------|---------------------|
--6------4--2----1----|--2----1---------1--2--|---------------------|
----------------------|------------4----------|--4--------7----6----|

-----------------------|----------------------|--------------------------|
-----------------------|----------------------|--------------------------|
-----------------------|----------------------|--------------9-----------|
-----------------------|----------------------|--5h-8h-7--5--7--5--7--8--|
--2----1---------1--2--|--6------4--2----1----|--3h-6h-5--3-----3--5--6--|
------------4----------|----------------------|--------------------------|

--------------------------|--------------------------|
--------------------------|--------------------------|
--------------9-----------|--------------9-----------|
--4h-7h-5--3--7--3--5--7--|--5h-8h-7--5--7--5--7--8--|
--2h-5h-3--1-----1--3--5--|--3h-6h-5--3-----3--5--6--|
--------------------------|--------------------------|


---------------------------|--------------------------|
---------------------------|--------------------------|
---------------------------|--------------9-----------|
--8--10--8--7--5--4--------|--5h-8h-7--5--7--5--7--8--|
--6--8---6--5--3--2--6--4--|--3h-6h-5--3-----3--5--6--|
---------------------4--2--|--------------------------|

--------------------------|--------------------------|-------------------------|
--------------------------|--------------------------|-------------------------|
--------------9-----------|--------------9-----------|--3--------3--2--4--6/---|
--4h-7h-5--4--7--4--5--7--|--5h-8h-7--5--7--5--7--8--|--1--5--5--1--0----------|
--2h-5h-3--2-----2--3--5--|--3h-6h-5--3-----3--5--6--|-----3--3----------------|
--------------------------|--------------------------|-------------------------|

----------------------|----------------------|----------------------|
----------------------|----------------------|----------------------|
------------8~--------|------------3~---1~---|----------------------|
-----------------9~---|----------------------|------------8~---9~---|
--6~------------------|-------1~-------------|-------6~-------------|
-------6~-------------|--2~------------------|--7~------------------|

----------------------|----------------------|----------------------|
----------------------|----------------------|----------------------|
----------------------|------------8~--------|------------3~---1~---|
----------------------|-----------------9~---|----------------------|
-----------------4~---|--6~------------------|-------1~-------------|
--2~-----2~-4~--------|-------6~-------------|--2~------------------|

----------------------|----------------------|----------------------|
----------------------|----------------------|----------------------|
----------------------|----------------------|------------8~--------|
------------8~---9~---|----------------------|-----------------9~---|
-------6~-------------|-----------------4~---|--6~------------------|
--7~------------------|--2~-----2~-4~--------|-------6~-------------|

----------------------|----------------------|----------------------|
----------------------|----------------------|----------------------|
------------3~---1~---|----------------------|----------------------|
----------------------|------------8~---9~---|----------------------|
-------1~-------------|-------6~-------------|-----------------4~---|
--2~------------------|--7~------------------|--2~-----2~-4~--------|

----------------------|----------------------|----------------------|
----------------------|----------------------|----------------------|
------------8~--------|------------3~---1~---|----------------------|
-----------------9~---|----------------------|------------8~---9~---|
--6~------------------|-------1~-------------|-------6~-------------|
-------6~-------------|--2~------------------|--7~------------------|

----------------------|------------------------|------------------------|
----------------------|------------------------|------------------------|
----------------------|------------------------|------------------------|
----------------------|---------3--4--3-----4--|------------3--------3--|
-----------------4~---|--6------1--2--1--6--2--|--5------6--1--6--5--1--|
--2~-----2~-4~--------|--4---------------4-----|--3------4-----4--3-----|

------------------------|-------------------------|------------------------|
------------------------|-------------------------|------------------------|
------------------------|-------------------------|------------------------|
---------3--4--3-----4--|--8--9--8--6--8--6--3----|---------3--4--3-----4--|
--6------1--2--1--6--2--|--6--7--6--4--6--4--1----|--6------1--2--1--6--2--|
--4---------------4-----|-------------------------|--4---------------4-----|

------------------------|------------------------|-------------------------|
------------------------|------------------------|-------------------------|
------------------------|------------------------|-------------------------|
------------3--------3--|---------3--4--3-----4--|--8--9--8--6--8--6--3----|
--5------6--1--6--5--1--|--6------1--2--1--6--2--|--6--7--6--4--6--4--1----|
--3------4-----4--3-----|--4---------------4-----|-------------------------|

------------------------|------------------------|------------------------|
------------------------|------------------------|------------------------|
------------------------|------------------------|------------------------|
---------3--4--3-----4--|------------3--------3--|---------3--4--3-----4--|
--6------1--2--1--6--2--|--5------6--1--6--5--1--|--6------1--2--1--6--2--|
--4---------------4-----|--3------4-----4--3-----|--4---------------4-----|

-------------------------|------------------------|------------------------|
-------------------------|------------------------|------------------------|
-------------------------|------------------------|------------------------|
--8--9--8--6--8--6--3----|---------3--4--3-----4--|------------3--------3--|
--6--7--6--4--6--4--1----|--6------1--2--1--6--2--|--5------6--1--6--5--1--|
-------------------------|--4---------------4-----|--3------4-----4--3-----|

------------------------|-------------------------|-------------------||
------------------------|-------------------------|-------------------||
------------------------|-------------------------|-------------------||
---------3--4--3-----4--|--8--9--8--6--8--6--3----|-------------------||
--6------1--2--1--6--2--|--6--7--6--4--6--4--1----|--6/---------------||
--4---------------4-----|-------------------------|--4/---------------||

6.NYMPHATAMINE OVERDOSE

Tunning C-F-Bb-Eb-G-C

|-------------------------------------------------------|
|-------------------------------------------------------|
|-------------------------------------------------------|
|-------------------------------------------------------|
|--\7-7-7-7h8-8-4-4----5---5---5---5---0---0---0---0----|
|--------------------5---5---6---6---5---5---3---3------|

|------------------------------------|
|------------------------------------|
|------------------------------------|
|---4-------------\5-8-7-5h7p5-------|
|---4-hold---------------------8-----|
|---2--------------------------------|

rythm    not sure about the last part
|--------------------------------------------------|
|--------------------------------------------------|
|--------------------------------------------------|
|-----4---6/5---4---8/7---4---6/5--\5-8-7-5h7p5----|
|-----4---6/5---4---8/7---4---6/5--------------8---|
|---2-2-0-4/3-2-2-0-6/5-2-2-0-4/3------------------|
pm  .   .     .   .     .   .

   not sure about this part too
|------------------------------------------|
|------------------------------------------|
|------------------------------------------|
|------------------------------------------|
|------------------------------------------|
|--99999999-88888888-55555555-22222222-----|
pm ........ ........ ........ ........

play rythm first
|-----------------------------------------------------------|
|-----------------------------------------------------------|
|-----------------------------------------------------------|
|---4-------------\8--8--/5--/4------------\8--7777-2222----|
|---4-------------\8--8--/5--/4------------\8---------------|
|---2--5422-5422--\6--6--/3--/2-5422-5422--\6---------------|
     pm.... ....              pm.... ....


|-----------------------------|
|-----------------------------|
|-----------------------------|
|---2---5----\10---/7---2-----|
|---2---5----\10---/7---2-----|
|---0---3----\8----/5---0-----|

|--------------------------------------------------------------|
|---8-7-8-5-8-7-8-7-8-5-8-7-8-7-8---8-7-8-7-8---8-7-8-7-8------|
|---------------------------------7-----------7-----------5----|
|--------------------------------------------------------------|
|--------------------------------------------------------------|
|--------------------------------------------------------------|

|----------------------------------------------|
|--8-7-8-7-8---8-7-8-7-8---8-7-8-10-8-7-8-5----|
|------------5-----------4---------------------|
|----------------------------------------------|
|----------------------------------------------|
|----------------------------------------------|

|-----------------------------------------------------|
|-----------------------------------------------------|
|-----------------------------------------------------|
|---\9999-/7777-\9999-/5555-\9999-/7777-/5555-\7777---|
|---\9999-/7777-\9999-/5555-\9999-/7777-/5555-\7777---|
|---\7777-/5555-\7777-/3333-\7777-/5555-/3333-\5555---|
  pm ....  .... .... .... .... .... .... ....  ....


|-------------------------------------------------------------------|
|--------------------------------------------------------12-13------|
|---\7-9-9~-11-12-11~-11h12p11-9~-12-14-12~-12h14p12-11~------------|
|-------------------------------------------------------------------|
|-------------------------------------------------------------------|
|-------------------------------------------------------------------|

|-----------------------------------|
|---12~-12h13p12-10~-10-------------|
|-----------------------12h14-14----|
|-----------------------------------|
|-----------------------------------|
|-----------------------------------|

|--------------------------------------|
|--------------------------------------|
|--------------------------------------|
|--5-5--\9--8--/5-/6--\9--8--/5-/6-----|
|--5-5--\9--8--/5-/6--\9--8--/5-/6-----|
|--3-3--\7--6--/3-/4--\7--6--/3-/4-----|

7.PAINTING FLOWERS WHITE NEVER SUITED MY PALETTE

Don't Know

8.MEDUSA AND HEMLOCK

(C,G,C,F,A,D)

D|----------------------------------------------------------------------------|       |---------|
A|-------------------------------------------------------------------------7b-|       |---------|
F|----------------------------------------------------------------------------|       |---------|
C|-7-7-8h7-7-7-7-10h8p7--7-7-8h7-7-7-7-10h8p7---------------------------------| 4X    |-5-4-3-1-|
G|-0-0-0---0-0-0---------0-0-0---0-0-0--------88887777888810101010-88887777---|       |-5-4-3-1-|
C|----------------------------------------------------------------------------|       |-5-4-3-1-|
                                                                                        . . . .

D|------------------------------------------------------------------------------|
A|------------------------------------------------------------------------------|
F|--------------------------------------------6-5-------------------------------|
C|-7-----------7-----------7-----------------------------5--8--7--8--5--8--6--9-| 2X
G|-5h6p5h6p5---5h6p5h6p5---5h6p5h6p5------3-5------------3--6--5--6--3--6--4--7-|
C|------------------------------------------------------------------------------|


D|------------------------------------------------------------------------------|
A|------------------------------------------------------------------------------|
F|------------------------------------------------------------------------------|
C|------------------------------------------------------------------------------| 2X
G|----------------------------------------------------------------3-------------|
C|-5555858-5555858-5555858-5555858-4444747-4444747--5-8-4-7-5-8-4---------------|
   ....... ....... ....... ....... ....... .......  . . . . . . . .

D|-------------------------------|
A|-------------------------------|
F|-------------------------------|  This is all I got for this part
C|-0---0h1-1---0-1-6-5-4---3/4-3-|
G|-0---0h1-1---0-1-6-5-4---3/4-3-|
C|-0---0h1-1---0-1-6-5-4---3/4-3-|
               . . . .


                             (Guitar 1)
D|-----------------------------------------------------------------------------|
A|-----------------------------------------------------------------------------|
F|-----------------------------------------------------------------------------| ______
C|---10-11-10---10---10-11-10---10---10-11-10---10---8-10-8---8------|      ---|
G|-8----------8----8----------8----8----------8-------------11-11----|      ---|
C|-------------------------------------------------------------------|      ---|
                                                                             |
                                                                             | 2X
                                                                             |
D|-------------------------------------------------------------------|      ---|
A|-------------------------------------------------------------------|      ---|
F|-------------------------------------------------------------------|      ---|
C|---9-10-9---9---9-10-9---9---9-10-9---9---7-9-7----7---------------| _____---|
G|-7--------7---7--------7---7--------7-----------10---10----------------------|
C|-----------------------------------------------------------------------------|

                                  (Guitar 2)
D|---------------------------------------------------------------------------------|
A|---------------------------------------------------------------------------------|
F|----12-13-12----12----12-13-12----12----12-13-12----12---10-12-10----10----------| ______
C|-10----------10----10----------10----10----------10---------------13----13----| -|
G|------------------------------------------------------------------------------| -|
C|------------------------------------------------------------------------------| -|
                                                                                        |
                                                                                        | 2X
                                                                                        |
D|------------------------------------------------------------------------------|      --|
A|------------------------------------------------------------------------------|      --|
F|---11-12-11---11---11-12-11---11---11-12-11---11---9-11-9----9----------------|      --|
C|-9----------9----9----------9----9----------9-------------12---12-------------| _____--|
G|---------------------------------------------------------------------------------------|
C|---------------------------------------------------------------------------------------|

D|---------------------------------------------|
A|---------------------------------------------|
F|---------------------------------------------|
C|-7-----------3-----------6------------5--5---|
G|-5-----------1-----------4------------5--5---|
C|----0-0-0-0-----0-0-0-0-----0-0-0-0---5--5---|
      . . . .     . . . .     . . . .

            Back To The Beginning


                       (Guitar 1)
D|----------------------------------------------------------------|
A|----------------------------------------------------------------|
F|----------------------------------------------------------------| ______
C|------------------------------------------------------|      ---|
G|---5-6-5---5---5-6-5---5---5-6-5---5---3-5-3-1-3-1----|      ---|
C|-5-------5---5-------5---5-------5--------------------|      ---|
                                                                |
                                                                | 2X
                                                                |
D|------------------------------------------------------|      ---|
A|------------------------------------------------------|      ---|
F|------------------------------------------------------|      ---|
C|------------------------------------------------------| _____---|
G|---4-5-4---4---4-5-4---4---4-5-4---4---2-4-2-0-2-0--------------|
C|-4-------4---4-------4---4-------4------------------------------|

                       (Guitar 2)
D|----------------------------------------------------------------|
A|----------------------------------------------------------------|
F|----------------------------------------------------------------| ______
C|---7-8-7---7---7-8-7---7---7-8-7---7---5-7-5---5------|      ---|
G|-5-------5---5-------5---5-------5-----------8---8----|      ---|
C|------------------------------------------------------|      ---|
                                                                |
                                                                | 2X
                                                                |
D|------------------------------------------------------|      ---|
A|------------------------------------------------------|      ---|
F|------------------------------------------------------|      ---|
C|---6-7-6---6---6-7-6---6---6-7-6---7---4-6-4---4------| _____---|
G|-4-------4---4-------4---4-------4-----------7---7--------------|
C|----------------------------------------------------------------|

               I dont know the solo yet...
                  but after the solo...

D|----------------------------------------------------|
A|----------------------------------------------------|
F|----------------------------------------------------|
C|-5--------5-5-5---5-5-5--------4-----4-4-4---4-4-4--| 2X
G|-5--------5-5-5---5-5-5--------4-----4-4-4---4-4-4--|
C|-5--------5-5-5---5-5-5--------4-----4-4-4---4-4-4--|

D|----------------------------------------------------------------------------|
A|-------------------------------------------------------------------------7b-|
F|----------------------------------------------------------------------------|
C|-7-7-8h7-7-7-7-10h8p7--7-7-8h7-7-7-7-10h8p7---------------------------------| 2X
G|-0-0-0---0-0-0---------0-0-0---0-0-0--------88887777888810101010-88887777---|
C|----------------------------------------------------------------------------|


D|----------------------------------------------------------------------------|
A|----------------------------------------------------------------------------|
F|----------------------------------------------------------------------------|
C|----------------------------------------------------------------------------| 4X
G|----------------------------------------------------------------3-----------|
C|-5555858-5555858-5555858-5555858-4444747-4444747--5-8-4-7-5-8-4-------------|
   ....... ....... ....... ....... ....... .......  . . . . . . . .


D|-------------------------------------------------------------|
A|-------------------------------------------------------------|
F|--------------------------------------------------------7----|
C|--------------------------------------------------------7----| 2X
G|---------------3---------------3---------------3--------5----|
C|-5-8-4-7-5-8-4---5-8-4-7-5-8-4---5-8-4-7-5-8-4---------------|
   . . . . . . . . . . . . . . . . . . . . . . . .

9.COFFIN FODDER

standard tuning

intro riff(1) tremolo pick through intro only
|------------------------------------------|
|------------------------------------------|
|------------------------------------------|
|------------------------------------------|
|-1--3434-1-3434/6-4h6p44-4h6p43-6h46-8h68-|
|------------------------------------------|

riff 2a, both guitars
|-----------------------------------------------------------|
|-----------------------------------------------------------|
|-----------------------------------------------------------|
|-3--3-3-6-33333333333-5555-66666666666-5555------------6-8-|
|-1--1-1-4-11111111111-3333-44444444444-3333-6666666666-4-6-|
|-------------------------------------------4444444444------|

riff 2b,both guitars
|----------------------------------------------------------------------|
|----------------------------------------------------------------------|
|----------------------------------------------------------------------|
|-33333333333-6-33333333333-5555-6666-5555------5-6-3333-5555-6666-8888|
|-11111111111-4-11111111111-3333-4444-3333-6666-3-4-1111-3333-4444-6666|
|------------------------------------------4444------------------------|

|riff 3, guitar 1  x2
|----1-----1-------1-------1----4-2-1--1-2-1---4-2-1-2-4-2-4-|
|-----22----22------22------222--------------2---------------|
|-333---3-33---3-33---3-33-----------------------------------|
|------------------------------------------------------------|
|------------------------------------------------------------|
|------------------------------------------------------------|
|
|riff 3, guitar 2   x2
|------------------------------------------------------------|
|-----------------------------------2-4--2-----------4-6-4-6-|
|-3----5-6-5-6-3----5-6-5--------------------5---------------|
|-------------------------6-4--------------------------------|
|------------------------------------------------------------|
|------------------------------------------------------------|

verse riff(4)   x2
|-----------------------------------------------------------|
------------------------------------------------------------|
|-----------------------------------------------------------|
|-3-33-3-33-3-333333-3-33-3-33-565-----------------8-10-8-10|
|-1-11-1-11-1-111111-1-11-1-11-343-6-4-44-4-6-66-6-6--8-6--8|
|----------------------------------4-2-22-2-4-44-4----------|
    pm   ..   ......   ..   ..         ..     ..

riff 2a(w/ different strumming at the beginning) and 2b

10.ENGLISH FIRE

Tunning C G C F A D

|---------------------------------------------------------------------|
|---------------------------------------------------------------------|
|---------------------------------------------------------------------|
|-5-4-2-0-2----5--7--4--5----5-4-2-0-2--------------------------------|
|-5-4-2-0-2----3--5--2--3----5-4-2-0-2--fade out----------------------|
|-5-4-2-0-2------------------5-4-2-0-2--------------------------------|

|---------------------------------------------------------------------|
|---------------------------------------------------------------------|
|---------------------------------------------------------------------|
|-5-4-2-0-2---10-9-x-7-8--6-5-x-2-3-----------------------------------|
|-5-4-2-0-2---10-9-x-7-8--6-5-x-2-3-----------------------------------|
|-5-4-2-0-2---10-9-x-7-8--6-5-x-2-3-----------------------------------|

|---------------------------------------------------------------------|
|---------------------------------------------------------------------|
|---------------------------------------------------------------------|
|-3-3-x-x-x-x-3-6-3-6-6---3-3-x-x-x-x-3-6-3---------------------------|
|-3-3-x-x-x-x-3-6-3-6-6---3-3-x-x-x-x-3-6-3---------------------------|
|-3-3-x-x-x-x-3-6-3-6-6---3-3-x-x-x-x-3-6-3--7/-----------------------|

|---------------------------------------------------------------------|
|---------------------------------------------------------------------|
|----------------------------------------9-7--------------------------|
|-9-9-10-9-9-10-9---9-9-10--9-10--------------------------------------|
|---------------------------------------------------------------------|
|---------------------------------------------------------------------|

|---------------------------------------------------------------------|
|---------------------------------------------------------------------|
|---------------------------------------------------------------------|
|-9-10-9--7-9-7--9-10-9--5-7-5----------------------------------------|
|---------------------------------------------------------------------|
|---------------------------------------------------------------------|

|---------------------------------------------------------------------|
|---------------------------------------------------------------------|
|---------------------------------------------------------------------|
|-5-4-2-0-2---10-9-x-7-8--6-5-x-2-3-----------------------------------|
|-5-4-2-0-2---10-9-x-7-8--6-5-x-2-3-----------------------------------|
|-5-4-2-0-2---10-9-x-7-8--6-5-x-2-3-----------------------------------|

|---------------------------------------------------------------------|
|---------------------------------------------------------------------|
|---------------------------------------------------------------------|
|-3-3-x-x-x-x-3-6-3-6-6---3-3-x-x-x-x-3-6-3---------------------------|
|-3-3-x-x-x-x-3-6-3-6-6---3-3-x-x-x-x-3-6-3---------------------------|
|-3-3-x-x-x-x-3-6-3-6-6---3-3-x-x-x-x-3-6-3--7/-----------------------|

|---------------------------------------------------------------------|
|---------------------------------------------------------------------|
|---------------------------------------------------------------------|
|-5-4-2-0-2-----------------------------------------------------------|
|-5-4-2-0-2--fade out-------------------------------------------------|
|-5-4-2-0-2-----------------------------------------------------------|

11.FILTHY LITTLE SECRET

Gtr I (C F A# D# G C) - 'Untitled'
Gtr II (C F A# D# G C) - 'Untitled'

   Intro
    Q=182
    A5                        G5  D5         B5  C5   D5C5B5 G5
   4/4
    Gtrs I, II
    Q  E Q  Q  E   Q  E Q  Q  E   Q  E Q  Q  E   Q  E E E Q  E
||---------------|--------------|--------------|----------------|
||o--------------|--------------|--------------|----------------|
||---------------|--------------|--------------|----------------|
||---------------|--------------|-7--7-7--7--4-|-5--5-7-5-4-----|
||o-7--7-7--7--7-|-7--7-7--7--5-|-5--5-5--5--2-|-3--3-5-3-2--5--|
||--5--5-5--5--5-|-5--5-5--5--3-|--------------|-------------3--|


  A5                        G5              B5  G5     C5B5 G5
  Q  E Q  Q  E   Q  E Q  Q  E   Q  E Q  E E E   Q  E E E Q  E
|--------------|--------------|---------------|----------------||
|--------------|--------------|---------------|---------------o||
|--------------|--------------|---------------|----------------||
|--------------|--------------|-5--5-5--5-5-4-|--------5-4-----||
|-7--7-7--7--7-|-7--7-7--7--5-|-3--3-3--3-3-2-|-5--5-5-3-2--5-o||
|-5--5-5--5--5-|-5--5-5--5--3-|---------------|-3--3-3------3--||


 Bridge
  N.C.
                    ~
  E E E E E E E E   W
|-----------------|------|
|-----------------|------|
|-----------------|------|
|-7-5-3-5-3-2-3-2-|-3----|
|-----------------|------|
|-----------------|------|


   Verse
    $
    D5                                B5
    Gtr I
    Q  E Q   E E E   Q  E  Q  E E E   Q  E Q   E E E   Q  E Q   E E E
||-----------------|----------------|----------------|-----------------|
||o----------------|----------------|----------------|-----------------|
||-----------------|----------------|----------------|-----------------|
||--7--7-7---7-7-7-|-7--7--7--7-7-7-|-4--4-4---4-4-4-|-4--4-4---4-4-4--|
||o-5--5-5---5-5-5-|-5--5--5--5-5-5-|-2--2-2---2-2-2-|-2--2-2---2-2-2--|
||-----------------|----------------|----------------|-----------------|
|
|   Gtr II
|      TP  TP  TP    TP TP               TP  TP  TP       TP  TP  TP
|   Q  Q   Q   Q     Q  H.            Q  Q   Q   Q     Q  Q   Q   Q
||-----5---6---5---|-3--5-----------|----6---5---3---|----8---6---5----|
||o----------------|----------------|----------------|-----------------|
||-----------------|----------------|----------------|-----------------|
||--7--------------|----------------|-4--------------|-4---------------|
||o-5--------------|----------------|-2--------------|-2---------------|
||-----------------|----------------|----------------|-----------------|


  D5                                F5                    E5     F5 E5 C5
  Q  E Q   E E E   Q  E  Q  E E E    Q   E  Q   E  E  E   Q  E E  E Q  E
|----------------|----------------|---------------------|-----------------||
|----------------|----------------|---------------------|----------------o||
|----------------|----------------|-10--10-10--10-10-10-|-9--9-9-10-9--5--||
|-7--7-7---7-7-7-|-7--7--7--7-7-7-|-10--10-10--10-10-10-|-9--9-9-10-9--5--||
|-5--5-5---5-5-5-|-5--5--5--5-5-5-|--8---8--8---8--8--8-|-7--7-7--8-7--3-o||
|----------------|----------------|---------------------|-----------------||
|
|    TP  TP  TP    TP TP
| Q  Q   Q   Q     Q  H.             Q   E  Q   E  E  E   Q  E E  E Q  E
|----5---6---5---|-3--5-----------|---------------------|-----------------||
|----------------|----------------|---------------------|----------------o||
|----------------|----------------|-10--10-10--10-10-10-|-9--9-9-10-9--5--||
|-7--------------|----------------|-10--10-10--10-10-10-|-9--9-9-10-9--5--||
|-5--------------|----------------|--8---8--8---8--8--8-|-7--7-7--8-7--3-o||
|----------------|----------------|---------------------|-----------------||


    G#5               Eb5    D5
    Gtrs I, II
    W          +H     H      W          +W
||-----------|-------------|----------|--------|
||o----------|-------------|----------|--------|
||-----------|-------------|----------|--------|
||-----------|--------8----|-7--------|-(7)----|
||o-6--------|-(6)----6----|-5--------|-(5)----|
||--4--------|-(4)---------|----------|--------|


  G#5               A5     Eb5        D5
  W          +H     H      W          W
|----------|-------------|----------|-------||
|----------|-------------|----------|------o||
|----------|-------------|----------|-------||
|----------|--------2----|-8--------|-7-----||
|-6--------|-(6)----0----|-6--------|-5----o||
|-4--------|-(4)---------|----------|-------||


 Pre-Chorus
  N.C.
  Gtr I
  E  E S S E E E S S E   E E S S E E E S S E
|----------------------|---------------------|
|----------------------|---------------------|
|----------------------|---------------------|
|----------------------|---------------------|
|----------------------|---------------------|
|-2--2-2-2-2-2-2-2-2-2-|-2-2-2-2-2-2-2-2-2-2-|
|
| Gtr II
| TP             TP  TP  TP        TP
| H.             E   E   H         H
|----------------------|---------------------|
|----------------------|---------------------|
|----------------------|---------------------|
|-4--------------6---7-|-6---------3---------|
|----------------------|---------------------|
|----------------------|---------------------|


  E  E S S E E E S S E   E E S S E E E S S E
|----------------------|----------------------|
|----------------------|----------------------|
|----------------------|----------------------|
|----------------------|----------------------|
|----------------------|----------------------|
|-2--2-2-2-2-2-2-2-2-2-|-2-2-2-2-2-2-2-2-2-2--|
|
| TP             TP  TP  TP  TP    TP  TP
| H.             E   E   Q   Q     Q   Q
|----------------------|----------------------|
|----------------------|----------------------|
|----------------------|----------------------|
|-4--------------6---7-|-6---9-----7---6------|
|----------------------|----------------------|
|----------------------|----------------------|


  N.C.
  E  E S S E E E S S E   E E S S E E E S S E
|----------------------|---------------------|
|----------------------|---------------------|
|----------------------|---------------------|
|----------------------|---------------------|
|-5--5-5-5-5-5-5-5-5-5-|-5-5-5-5-5-5-5-5-5-5-|
|----------------------|---------------------|
|
| TP             TP  TP  TP        TP
| H.             E   E   H         H
|----------------------|---------------------|
|----------------------|---------------------|
|----------------------|---------------------|
|-4--------------6---7-|-6---------3---------|
|----------------------|---------------------|
|----------------------|---------------------|


  E  E S S E E E S S E   E E S S E E E S S E
|----------------------|----------------------|
|----------------------|----------------------|
|----------------------|----------------------|
|----------------------|----------------------|
|----------------------|----------------------|
|-2--2-2-2-2-2-2-2-2-2-|-2-2-2-2-2-2-2-2-2-2--|
|
| TP             TP  TP  TP  TP    TP  TP
| H.             E   E   Q   Q     Q   Q
|----------------------|----------------------|
|----------------------|----------------------|
|----------------------|----------------------|
|-4--------------6---7-|-6---9-----7---6------|
|----------------------|----------------------|
|----------------------|----------------------|


  N.C.
  Gtr I
  TP      TP    TP   TP     TP      TP    TP TP TP TP
  H.      Q     H    H      H.      Q     Q  Q  Q  Q
|-------------|-----------|-------------|-------------|
|-------------|-----------|-------------|-------------|
|-------------|-----------|---------6---|-4--7--6--4--|
|-4-------7---|-6---------|-4-----------|-------------|
|-------------|------8----|-------------|-------------|
|-------------|-----------|-------------|-------------|
|
| Gtr II
| TP      TPTP  TP   TP     TP      TPTP  TP TP TP TP
| H.      E E   H    H      H.      E E   Q  Q  Q  Q
|-------------|-----------|-------------|-------------|
|-------------|-----------|-------------|-------------|
|-------------|-----------|-------------|-------------|
|-4-------6-7-|-6----3----|-4-------6-7-|-6--9--7--6--|
|-------------|-----------|-------------|-------------|
|-------------|-----------|-------------|-------------|


  N.C.
  TP      TP    TP   TP     TP      TP    TP TP TP TP
  H.      Q     H    H      H.      Q     Q  Q  Q  Q
|-------------|-----------|-
Добавлено: 05.07.2012
Другие материалы по этой песне:
  • Аккорды и текст

Страница создана 05.07.2012
http://primanota.ru/cradle-of-filth/nymphetamine-album-chords.htm
Привет, Гость.
Предлагаем пройти революционный курс по гитаре.
Подарок от PrimaNota.Ru, забирай!