PrimaNota.ru - самый крупный в мире бесплатный архив песенных текстов, аккордов, табулатур и нот


Cradle Of Filth - Not Time To Cry - таба, видео

Регистрация Запомнить меня
Войти через:  Facebook Google Twitter Vk Yandex Mail.ru

Cradle Of Filth - Not Time To Cry - таба, видео

Печатать
Просмотров: 133
     I have seen all the tabs for this song and none of them sound like good tabs(no 
 So, I have listened to the song many times to match the notes and this is what i have come 
with.  I hope this tab will help you. Please rate and enjoy!!!


Key:  . = palm mute
      ()= let note(s) ring
      / = slide up to note

      *sounds cool with reverb*
D|--------------------------------------------------------------|
A|--------------------------------------------------------------|  x2
F|--------------------------------------------------------------|
C|--4---7-6-7-------4---7-6-7-------4---7-6-7------4---7-6-7----|
G|------------5----------------2--------------5--------------2--|
D|--------------------------------------------------------------|

D|-----------------------------------------|
A|-----------------------------------------|  X2
F|--8888868--------------------------------|
C|--6666666-99998899--66998899--888911989--|
G|----------77777777--44444444--6666 6666--|
D|-----------------------------------------|

D|----------------------------------------------|
A|----------------------------------------------|  X2
F|-------------------------6-6666-6/8-----------|
C|--6-666-6/9--2-----------6-6666-6/8-888888888-|
G|--6-666------2-22-2-1-2--4-4444-4/6-666666666-|
D|--4-444------0-00--0-0-0----------------------|
      ...        ..  . . .   ....     .........
D|------------------------------------------------------------------------|
A|------------------------------------------------------------------------|
F|------------------------------------------------------------------------|
C|---------------------999888999--------999888999--------999888999--------|
G|--11*11*11*11*11*11*-----------777777-----------444444-----------666666-|
D|------------------------------------------------------------------------|
    .  .  .  .  .  .   ......... ...... ......... ...... ......... ......
D|---------------------------|
A|---------------------------|  X2
F|---------------------------|
C|-88899911*11*11*999888999--|  *elevens, not ones*
G|---------------------------|
D|---------------------------|
   ........  .  . .........
D|--------------------------------------------|
A|--------------------------------------------|  X4
F|-------------4----4---------------444333----|
C|--6----6-----4-44-4-44-2----2-----------444-|
G|--6-66-6-66--2-22-2-22-2-22-2-222-----------|
D|--4-44-4-44------------0-00-0-000-----------|
      ..   ..    ..   ..   ..   ...
D|----------------------------------|
A|----------------------------------|  X1
F|----------------------------------|
C|--(6)*----(6)*----(6)*----(6)*----|  *let notes ring for 4 beats*
G|--(4)-----(4)-----(4)-----(4)-----|
D|--(4)-----(4)-----(4)-----(4)-----|

      DRUMS, BASS, AND KEYBOARD PART

D|------------------------------------------------------------------------|
A|------------------------------------------------------------------------|
F|------------------------------------------------------------------------|
C|---------------------999888999--------999888999--------999888999--------|
G|--11*11*11*11*11*11*-----------777777-----------444444-----------666666-|
D|------------------------------------------------------------------------|
     .  .  .  .  .  .  ......... ...... ......... ...... ......... ......
D|---------------------------|
A|---------------------------|  X2
F|---------------------------|
C|-88899911*11*11*999888999--|  *elevens, not ones*
G|---------------------------|
D|---------------------------|
   ...... .  .  . .........

D|--------------------------------------------|
A|--------------------------------------------|  X4
F|-------------4----4---------------444333----|
C|--6----6-----4-44-4-44-2----2-----------444-|
G|--6-66-6-66--2-22-2-22-2-22-2-222-----------|
D|--4-44-4-44------------0-00-0-000-----------|
      ..   ..    ..   ..   ..   ...

D|----------------------------------|
A|----------------------------------|  X1
F|----------------------------------|
C|--(6)*----(6)*----(6)*----(6)*----|  *let notes ring for 4 beats*
G|--(4)-----(4)-----(4)-----(4)-----|
D|--(4)-----(4)-----(4)-----(4)-----|

D|------------------------------------------------------|
A|------------------------------------------------------|  X1
F|------------------------------------------------------|
C|------------------------------------------------------|
G|------5--2--5------5--2--5------5--2--5------5--2--5--|
D|--2------------2------------2------------2------------|


D|----------------------------------------------|
A|----------------------------------------------|  X2
F|-------------------------6-6666-6/8-----------|
C|--6-666-6/9--2-----------6-6666-6/8-888888888-|
G|--6-666------2-22-2-1-2--4-4444-4/6-666666666-|
D|--4-444------0-00--0-0-0----------------------|
      ...        ..  . . .   ....     .........
D|------------------------------------------------------------------------|
A|------------------------------------------------------------------------|
F|------------------------------------------------------------------------|
C|---------------------999888999--------999888999--------999888999--------|
G|--11*11*11*11*11*11*-----------777777-----------444444-----------666666-|
D|------------------------------------------------------------------------|
     .  .  .  .  .  .  ......... ...... ......... ...... ......... ......
D|---------------------------|
A|---------------------------|  X2
F|---------------------------|
C|-88899911*11*11*999888999--|  *elevens, not ones*
G|---------------------------|
D|---------------------------|
   ...... .  .  . .........

D|--------------------------------------------|
A|--------------------------------------------|  X4
F|-------------4----4---------------444333----|
C|--6----6-----4-44-4-44-2----2-----------444-|
G|--6-66-6-66--2-22-2-22-2-22-2-222-----------|
D|--4-44-4-44------------0-00-0-000-----------|
      ..   ..    ..   ..   ..   ...
D|----------|
A|----------|  X1
F|----------|
C|--(6)*----|  *let notes ring for 4 beats*
G|--(6)-----|
D|--(4)-----|

      Dani holds the last vocal note and the song is over

      I hope the tab helped you.  thanks for viewing!  Please rate!
Добавлено: 24.06.2012
Другие материалы по этой песне:
  • Аккорды и текст

Страница создана 24.06.2012
http://primanota.ru/cradle-of-filth/not-time-to-cry-chords.htm
Привет, Гость.
Предлагаем пройти революционный курс по гитаре.
Подарок от PrimaNota.Ru, забирай!