PrimaNota.ru - самый крупный в мире бесплатный архив песенных текстов, аккордов, табулатур и нот


Cradle Of Filth - Lilith Immaculate - текст песни, таба, видео

Регистрация Запомнить меня
Войти через:  Facebook Google Twitter Vk Yandex Mail.ru

Cradle Of Filth - Lilith Immaculate - текст песни, таба, видео

Печатать
Просмотров: 312
Уроки эстрадного вокала в Санкт-Петербурге
lilith immaculate
dgcfad            '*'=palm mute

Riff A both Gtrs.0:00-0:25,1:39-2:01
------------------------------------------------------------------------|
------------------------------------------------------------------------|
------------------------------------------------------------------------|
------------------------------------------------------------------------|
2-**************-5-****-6-6-************---^----^----------------^------|
0-00000000000000-3-1111-4-4-777777777777-10-7-10-7-666666666666-9-6-9-6-|

Riff B Gt.1 Gt2plays root notes-8/8,11/11 ect.0:25-0:49,2:00-2:23,5:00-5:14-|
---------1st time-----------------------------------------------------------|
----------------------------------------------------------------------------|
----------------------------------------------------------------------------|
8888101010101111111110101010888810101010------------------------------------|
8888-8-8-8-8-8-8-8-8-8-8-8-88888-8-8-8-8------------------------------------|
----------------------------------------------------------------------------|


----2nd time-------------------------------------|
--------------------------------------------------|
--------------------------------------------------|
-888888888888101010101111111110101010888810101010-|
-888888888888-8-8-8-8-8-8-8-8-8-8-8-88888-8-8-8-8-|
--------------------------------------------------|


-in same rythm---as above------------------------|
-------------------------------------------------|
-------------------------------------------------|
-11///-------13///---14///---13///---11///13///--|
-11-///------11///---11///---11///---11///11///--|
-------------------------------------------------|


-------------------------------------------------|
-------------------------------------------------|
-------------------------------------------------|
-9///---------11///--13-///---11///---9///-11///-|
-9///---------9///----9-///----9///---9///--9///-|
-------------------------------------------------|


Riff C Gt.1 0:49-1:12,2:25-2:48,5:14--------------------------|end
--------------------------------------------------------------|
--------------------------------------------------------------|
---------------------------------------5---4-5-5555-4-5-4-----|
222222222222777777222222-222222222222--3---2-3-3333-2-3-2-----|
000000000000555555000000-000000000000-------------------------|
------------555555--------------------------------------------|

Riff C Gt.2 all notes ///'d
------------------------------------------------------------------|
------------------------------------------------------------------|
------------------------------------------------------------------|
7--9-10-14--12--11-13-14-7--9--10--14--10--9---1010101010-9-10-9--|
0--0-0--0----0---0--0--0-0--0---0---0---8--7---8--8-8-8-8-7--8-7--|
------------------------------------------------------------------|

Riff D Gt.1 1:12-1:36,4:02-4:37
-----------------------------------------------------------|
-----------------------------------------------------------|
-----------------------------------------------------------|
-----------------------------------------------------------|
-----7---------7---------5---------------------------------|
-5------5--4------4--2------2--4--5--4--2------------------|

Riff D Gt.2
-----------------------------------------------------------|
-----------------------------------------------------------|
-----------------------------------------------------------|
-----------------------------------------------------------|
-7---7-----7---7-----5---5---------------------------------|
-5------5--4------4--2------2--4--5--4--2------------------|

Riff E both Gtrs.2:48-4:00
---------------------------------------------------------------------|
---------------------------------------------------------------------|
---------------------------------------------------------------------|
-------------------------7-------------------------------------------|
-/7\/9\/10\/6--10--9--10---10---------------------------------10-9---|
-------------------------------8-----10--8--7--8--7-7--8--7--5-------|

harmony Riff 3:36-4:00
------------------------------------------------------------------|
------------------------------------------------------------------|
------------------------------------------------------------------|
----9--\9------10-9-10-10-9--10----10-10--9-10-9-9----10-9-7-9-7--|
-10--------\9-----------------------------------------------------|
------------------------------------------------------------------|

Solo  4:35
---0\-19~~~~~~~-----------------------semi pm'd************----|
--------------------19--15--18---------------------------------|
----------------15-------------18~~~~--------------------------|
--------------------------------------------16-------17----16--|
-----------------------------------------14-------14----14-----|
--------------------------------------12-------12--------------|

                                . _____              _____
-------___-----------------------/     \ -----------/     \---------|
------/   \--------------------12-15-12-0-(12)^0--11-12-11-0-(11)^0-|
-16-15-16-15-12-15-12-11-12-15--------------------------------------|
--------------------------------------------------------------------|
--------------------------------------------------------------------|
--------------------------------------------------------------------|


---_____---------------_____-------------___-----------------------------|
--/     \-------------/     \-----------/   \-----___--------------------|
-12-15-12-0--12^11--11-12-11-0-(11)^0--7-9-7-0---/   \-------------------|
-----------------------------------------------9-11-9-0------------------|
-------------------------------------------------------------------------|
-------------------------------------------------------------------------|


--------------------------------------------------------------------------|
-------------------------------------------13-12----12--14-12-14-16-17-16-|
/10----12--13----12---13^12--10-----12--13-------13-----------------------|
--------------------------------------------------------------------------|
--------------------------------------------------------------------------|
--------------------------------------------------------------------------|

 T        T        T        T        T        T
-15-11^10-14-11^10-15-11^10-17-11^10-15-11^10-17-11^10------|
------------------------------------------------------------|
------------------------------------------------------------|
------------------------------------------------------------|
------------------------------------------------------------|
------------------------------------------------------------|

T        T        T        T        T         T
19-11^10-17-11^10-19-11^10-21-11^10-19-11^10-21\--|
--------------------------------------------------|
--------------------------------------------------|
--------------------------------------------------|
--------------------------------------------------|
--------------------------------------------------|
Добавлено: 23.06.2012
Другие материалы по этой песне:

Страница создана 06.03.2012
http://primanota.ru/cradle-of-filth/lilith-immaculate-chords.htm
Привет, Гость.
Предлагаем пройти революционный курс по гитаре.
Подарок от PrimaNota.Ru, забирай!