PrimaNota.ru - самый крупный в мире бесплатный архив песенных текстов, аккордов, табулатур и нот


Cradle Of Filth - Harlot On A Pedestal - текст песни, таба, видео

Регистрация Запомнить меня
Войти через:  Facebook Google Twitter Vk Yandex Mail.ru

Cradle Of Filth - Harlot On A Pedestal - текст песни, таба, видео

Печатать
Просмотров: 131
harlot on a pedestal
d-g-c-f-a-d

Riff A-both gtrs at start and 1:26 both played 2 times,semi palm muted throughout
-------------------------------------------------------------------|
-------------------------------------------------------------------|
---all ///'d-------------------------------------------------------|
-------------------------------------------------------------------|
-4-----6------7------6-----8----7------9-----10-----9------8-------|
-------------------------------------------------------------------|

Riff B both gtrs at :21 and 1;45
-------------------------------------]--------------]----------------------|
---------------played 2 times--------]--------------]----------------------|
-------------------------------------]-after 1st----]-2nd time-------------|
-6--8\9/8--9\8----------6--8\9/8--9\8]--------------]----------------------|
-4--6\7/6--7\6--7---10--4--6\7/6--7\6]--7---33-3-4-3]-3--4/3\4-3---5/7/5---|
----------------5---8----------------]--5---11-1-2-1]-1--2/1\2-1---3/5/3---|

Riff C both gtrs at :42 and 4:09-end
-------------------------------------------------------------|
-(*12 palm mutes)--------------------------------------------|
----------------2--------------------------------------------|
-------------------------------------------------------4-4]--|
6----7----10----10/99/77/66/4--6----7----10----6-5-3---2-2]--|
4-4*-5-4*-8--4*-8-/77/55/44/2--4-4*-5-4*-8--4*-4-3-1-0-2-2]--|
nd time is same except palm mutes are 9x's each in triplets

Riff D both gtrs at 1;01 and 3;24 4 times each
--------------------------------------------------------------------------|
-all ///'d----------------------------------------------------------------|
--------------------------------------------------------------------------|
-12----13------9-------8-----9----15--------------------------------------|
-10----11------7-------6-----7----13--------------------------------------|
--------------------------------------------------------------------------|

Riff E gt1 solo while gt2 plays riff C 2;06

-------------------------------------------------------------------------|
-------------------------------------------------------------------------|
-8^[0]-0^5^8[0]0^5^8[0]-0^5^8[0]0^5-11[0]0^8^11[0]0^8^11[0]0^8^11[0]0^8--|
-------------------------------------------------------------------------|
-------------------------------------------------------------------------|
-------------------------------------------------------------------------|
solo cont.
----------------------------------------------/20--19-17-19\-----------------|
-16^[0]0^13^16^[0]0^13^16^[0]0^13^16^[0]0^13------------------13-12-10-12-10-|
-----------------------------------------------------------------------------|
-----------------------------------------------------------------------------|
-----------------------------------------------------------------------------|
-----------------------------------------------------------------------------|
cont.
-----------------------------------------------------------------------------------|
--------------)--ph~----semi pm'd throughout---------------------------------------|
-12-11-12-14-14--12-----------8----------------------------------------------------|
----------------------7-9-10---10-9-7-9---------4-5-4--------------9-10-9----------|
--------------------------------------------5-6-------6-5-6---9-10--------10-9-10--|
-----------------------------------------------------------------------------------|
continued
------------------------------------------------|
------------------------------------------------|
------8-9-8---------12[0]11[0]9[0]11[0]9[0]-----|
-9-10-------10-9-10------------------------13---|
------------------------------------------------|
------------------------------------------------|
cont.
----------------------------------------------------------------------------------------|
-----------------------------12-13-12--------13--------13-------------------------------|
---13--------13---------13-14--------14-13-14--14-13-14--14-13-------------------13-14--|\
-----14-13-14--14-13-14----------------------------------------14--------------14-------|
-----------------------------------------------------------------15-14-12-14-15---------|
----------------------------------------------------------------------------------------|



Riff F Gt1 2;25

----partA-------------------------part B---------------------------------------------------|
----------3 times--------------------------------------------------------------------------|
-----------------------------]-----x14----------------x14------x6---------]-A+B]-----------|
----------------7--5---5---7-]----pm'd--------7--5---pm'd-5---pm'd-5-4-5-7]----]-----------|
--2---4--5--4---5--3---3---5-]-2--2----4-5-4--5--3--3-----3---3----3-2-3-5]----]--7--8--7--|
--0---2--3--2---5--3---------]-0--0----2-3-2--5--3--3-----3---3----3-2-3-5]----]--5--6--5--|

Riff F gt2
----------------]-after 8th time gt3 comes in with---------------------------]
-13-12-10-------]----------------10--------------------------------10--------]
---9--9--9-11-12]-9---11--12--11----12--11-9-11--12-11-12--11-9-11----12-11--]
----------------]]-----------------------------------------------------------]
-----------------]-----------------------------------------------------------]
-----------------]-----------------------------------------------------------]
3:20
--------------------------------------------------------------|
--------------------------------------13----------------------|
---12---14-12-14---16-14-16--16-14-16----16-14----------------|
--------------------------------------------------------------|
--------------------------------------------------------------|
--------------------------------------------------------------|
Добавлено: 25.05.2012
Другие материалы по этой песне:
  • Аккорды и текст

Страница создана 25.05.2012
http://primanota.ru/cradle-of-filth/harlot-on-a-pedestal-chords.htm
Привет, Гость.
Предлагаем пройти революционный курс по гитаре.
Подарок от PrimaNota.Ru, забирай!